  0
SECTION
  2
HEADER
  9
$ACADVER
  1
AC1015
  9
$ACADMAINTVER
 70
     6
  9
$DWGCODEPAGE
  3
ANSI_1254
  9
$INSBASE
 10
0.0
 20
0.0
 30
0.0
  9
$EXTMIN
 10
0.0
 20
0.0
 30
0.0
  9
$EXTMAX
 10
279.4
 20
215.9
 30
0.0
  9
$LIMMIN
 10
0.0
 20
0.0
  9
$LIMMAX
 10
279.4
 20
215.9
  9
$ORTHOMODE
 70
     0
  9
$REGENMODE
 70
     1
  9
$FILLMODE
 70
     1
  9
$QTEXTMODE
 70
     0
  9
$MIRRTEXT
 70
     1
  9
$LTSCALE
 40
1.0
  9
$ATTMODE
 70
     1
  9
$TEXTSIZE
 40
3.5
  9
$TRACEWID
 40
1.0
  9
$TEXTSTYLE
  7
Standard
  9
$CLAYER
  8
0
  9
$CELTYPE
  6
ByLayer
  9
$CECOLOR
 62
   256
  9
$CELTSCALE
 40
1.0
  9
$DISPSILH
 70
     0
  9
$DIMSCALE
 40
1.0
  9
$DIMASZ
 40
3.5
  9
$DIMEXO
 40
1.0
  9
$DIMDLI
 40
3.75
  9
$DIMRND
 40
0.0
  9
$DIMDLE
 40
0.0
  9
$DIMEXE
 40
1.0
  9
$DIMTP
 40
0.0
  9
$DIMTM
 40
0.0
  9
$DIMTXT
 40
3.5
  9
$DIMCEN
 40
2.5
  9
$DIMTSZ
 40
0.0
  9
$DIMTOL
 70
     0
  9
$DIMLIM
 70
     0
  9
$DIMTIH
 70
     1
  9
$DIMTOH
 70
     1
  9
$DIMSE1
 70
     0
  9
$DIMSE2
 70
     0
  9
$DIMTAD
 70
     1
  9
$DIMZIN
 70
     0
  9
$DIMBLK
  1

  9
$DIMASO
 70
     1
  9
$DIMSHO
 70
     1
  9
$DIMPOST
  1

  9
$DIMAPOST
  1

  9
$DIMALT
 70
     0
  9
$DIMALTD
 70
     3
  9
$DIMALTF
 40
0.0393700787
  9
$DIMLFAC
 40
1.0
  9
$DIMTOFL
 70
     1
  9
$DIMTVP
 40
0.0
  9
$DIMTIX
 70
     0
  9
$DIMSOXD
 70
     0
  9
$DIMSAH
 70
     0
  9
$DIMBLK1
  1

  9
$DIMBLK2
  1

  9
$DIMSTYLE
  2
ISO-25
  9
$DIMCLRD
 70
     0
  9
$DIMCLRE
 70
     0
  9
$DIMCLRT
 70
     0
  9
$DIMTFAC
 40
1.0
  9
$DIMGAP
 40
1.524
  9
$DIMJUST
 70
     0
  9
$DIMSD1
 70
     0
  9
$DIMSD2
 70
     0
  9
$DIMTOLJ
 70
     0
  9
$DIMTZIN
 70
     0
  9
$DIMALTZ
 70
     0
  9
$DIMALTTZ
 70
     0
  9
$DIMUPT
 70
     0
  9
$DIMDEC
 70
     2
  9
$DIMTDEC
 70
     2
  9
$DIMALTU
 70
     2
  9
$DIMALTTD
 70
     3
  9
$DIMTXSTY
  7
Standard
  9
$DIMAUNIT
 70
     0
  9
$DIMADEC
 70
     2
  9
$DIMALTRND
 40
0.0
  9
$DIMAZIN
 70
     0
  9
$DIMDSEP
 70
    44
  9
$DIMATFIT
 70
     3
  9
$DIMFRAC
 70
     0
  9
$DIMLDRBLK
  1

  9
$DIMLUNIT
 70
     2
  9
$DIMLWD
 70
    -2
  9
$DIMLWE
 70
    -2
  9
$DIMTMOVE
 70
     0
  9
$LUNITS
 70
     2
  9
$LUPREC
 70
     2
  9
$SKETCHINC
 40
1.0
  9
$FILLETRAD
 40
10.0
  9
$AUNITS
 70
     0
  9
$AUPREC
 70
     2
  9
$MENU
  1
.
  9
$ELEVATION
 40
0.0
  9
$PELEVATION
 40
0.0
  9
$THICKNESS
 40
0.0
  9
$LIMCHECK
 70
     0
  9
$CHAMFERA
 40
0.0
  9
$CHAMFERB
 40
0.0
  9
$CHAMFERC
 40
0.0
  9
$CHAMFERD
 40
0.0
  9
$SKPOLY
 70
     0
  9
$TDCREATE
 40
2460731.656067627
  9
$TDUCREATE
 40
2460731.531067627
  9
$TDUPDATE
 40
2460731.656067812
  9
$TDUUPDATE
 40
2460731.531067812
  9
$TDINDWG
 40
0.0000000116
  9
$TDUSRTIMER
 40
0.0000000116
  9
$USRTIMER
 70
     1
  9
$ANGBASE
 50
0.0
  9
$ANGDIR
 70
     0
  9
$PDMODE
 70
     0
  9
$PDSIZE
 40
-1.0
  9
$PLINEWID
 40
0.0
  9
$SPLFRAME
 70
     0
  9
$SPLINETYPE
 70
     6
  9
$SPLINESEGS
 70
     8
  9
$HANDSEED
  5
F2
  9
$SURFTAB1
 70
     6
  9
$SURFTAB2
 70
     6
  9
$SURFTYPE
 70
     6
  9
$SURFU
 70
     6
  9
$SURFV
 70
     6
  9
$UCSBASE
  2

  9
$UCSNAME
  2

  9
$UCSORG
 10
0.0
 20
0.0
 30
0.0
  9
$UCSXDIR
 10
1.0
 20
0.0
 30
0.0
  9
$UCSYDIR
 10
0.0
 20
1.0
 30
0.0
  9
$UCSORTHOREF
  2

  9
$UCSORTHOVIEW
 70
     0
  9
$UCSORGTOP
 10
0.0
 20
0.0
 30
0.0
  9
$UCSORGBOTTOM
 10
0.0
 20
0.0
 30
0.0
  9
$UCSORGLEFT
 10
0.0
 20
0.0
 30
0.0
  9
$UCSORGRIGHT
 10
0.0
 20
0.0
 30
0.0
  9
$UCSORGFRONT
 10
0.0
 20
0.0
 30
0.0
  9
$UCSORGBACK
 10
0.0
 20
0.0
 30
0.0
  9
$PUCSBASE
  2

  9
$PUCSNAME
  2

  9
$PUCSORG
 10
0.0
 20
0.0
 30
0.0
  9
$PUCSXDIR
 10
1.0
 20
0.0
 30
0.0
  9
$PUCSYDIR
 10
0.0
 20
1.0
 30
0.0
  9
$PUCSORTHOREF
  2

  9
$PUCSORTHOVIEW
 70
     0
  9
$PUCSORGTOP
 10
0.0
 20
0.0
 30
0.0
  9
$PUCSORGBOTTOM
 10
0.0
 20
0.0
 30
0.0
  9
$PUCSORGLEFT
 10
0.0
 20
0.0
 30
0.0
  9
$PUCSORGRIGHT
 10
0.0
 20
0.0
 30
0.0
  9
$PUCSORGFRONT
 10
0.0
 20
0.0
 30
0.0
  9
$PUCSORGBACK
 10
0.0
 20
0.0
 30
0.0
  9
$USERI1
 70
     0
  9
$USERI2
 70
     0
  9
$USERI3
 70
     0
  9
$USERI4
 70
     0
  9
$USERI5
 70
     0
  9
$USERR1
 40
0.0
  9
$USERR2
 40
0.0
  9
$USERR3
 40
0.0
  9
$USERR4
 40
0.0
  9
$USERR5
 40
0.0
  9
$WORLDVIEW
 70
     1
  9
$SHADEDGE
 70
     3
  9
$SHADEDIF
 70
    70
  9
$TILEMODE
 70
     1
  9
$MAXACTVP
 70
    64
  9
$PINSBASE
 10
0.0
 20
0.0
 30
0.0
  9
$PLIMCHECK
 70
     0
  9
$PEXTMIN
 10
1.0000000000E+20
 20
1.0000000000E+20
 30
1.0000000000E+20
  9
$PEXTMAX
 10
-1.0000000000E+20
 20
-1.0000000000E+20
 30
-1.0000000000E+20
  9
$PLIMMIN
 10
0.0
 20
0.0
  9
$PLIMMAX
 10
420.0
 20
297.0
  9
$UNITMODE
 70
     0
  9
$VISRETAIN
 70
     1
  9
$PLINEGEN
 70
     0
  9
$PSLTSCALE
 70
     1
  9
$TREEDEPTH
 70
  3020
  9
$CMLSTYLE
  2
Standard
  9
$CMLJUST
 70
     0
  9
$CMLSCALE
 40
20.0
  9
$PROXYGRAPHICS
 70
     1
  9
$MEASUREMENT
 70
     1
  9
$CELWEIGHT
370
    -1
  9
$ENDCAPS
280
     0
  9
$JOINSTYLE
280
     0
  9
$LWDISPLAY
290
     1
  9
$INSUNITS
 70
     4
  9
$HYPERLINKBASE
  1

  9
$STYLESHEET
  1

  9
$XEDIT
290
     1
  9
$CEPSNTYPE
380
     0
  9
$PSTYLEMODE
290
     1
  9
$FINGERPRINTGUID
  2
{7b2baccb-14ca-43ef-a852-f0a231859eb7}
  9
$VERSIONGUID
  2
{FAEB1C32-E019-11D5-929B-00C0DF256EC4}
  9
$EXTNAMES
290
     1
  9
$PSVPSCALE
 40
0.0
  9
$OLESTARTUP
290
     0
  0
ENDSEC
  0
SECTION
  2
CLASSES
  0
CLASS
  1
ACDBDICTIONARYWDFLT
  2
AcDbDictionaryWithDefault
  3
ObjectDBX Classes
 90
        0
280
     0
281
     0
  0
CLASS
  1
VISUALSTYLE
  2
AcDbVisualStyle
  3
ObjectDBX Classes
 90
     4095
280
     0
281
     0
  0
CLASS
  1
MATERIAL
  2
AcDbMaterial
  3
ObjectDBX Classes
 90
     1153
280
     0
281
     0
  0
CLASS
  1
SCALE
  2
AcDbScale
  3
ObjectDBX Classes
 90
     1153
280
     0
281
     0
  0
CLASS
  1
TABLESTYLE
  2
AcDbTableStyle
  3
ObjectDBX Classes
 90
     4095
280
     0
281
     0
  0
CLASS
  1
MLEADERSTYLE
  2
AcDbMLeaderStyle
  3
ACDB_MLEADERSTYLE_CLASS
 90
     4095
280
     0
281
     0
  0
CLASS
  1
SUN
  2
AcDbSun
  3
SCENEOE
 90
     1153
280
     0
281
     0
  0
CLASS
  1
ACDBPLACEHOLDER
  2
AcDbPlaceHolder
  3
ObjectDBX Classes
 90
        0
280
     0
281
     0
  0
CLASS
  1
LAYOUT
  2
AcDbLayout
  3
ObjectDBX Classes
 90
        0
280
     0
281
     0
  0
ENDSEC
  0
SECTION
  2
TABLES
  0
TABLE
  2
VPORT
  5
8
330
0
100
AcDbSymbolTable
 70
     1
  0
VPORT
  5
29
330
8
100
AcDbSymbolTableRecord
100
AcDbViewportTableRecord
  2
*Active
 70
     0
 10
0.0
 20
0.0
 11
1.0
 21
1.0
 12
139.7
 22
107.95
 13
0.0
 23
0.0
 14
10.0
 24
10.0
 15
10.0
 25
10.0
 16
0.0
 26
0.0
 36
1.0
 17
0.0
 27
0.0
 37
0.0
 40
215.9
 41
1.2941176471
 42
50.0
 43
0.0
 44
0.0
 50
0.0
 51
0.0
 71
     0
 72
  2000
 73
     1
 74
     3
 75
     0
 76
     0
 77
     0
 78
     0
281
     0
 65
     1
110
0.0
120
0.0
130
0.0
111
1.0
121
0.0
131
0.0
112
0.0
122
1.0
132
0.0
 79
     0
146
0.0
  0
ENDTAB
  0
TABLE
  2
LTYPE
  5
5
330
0
100
AcDbSymbolTable
 70
     6
  0
LTYPE
  5
14
330
5
100
AcDbSymbolTableRecord
100
AcDbLinetypeTableRecord
  2
ByBlock
 70
     0
  3

 72
    65
 73
     0
 40
0.0
  0
LTYPE
  5
15
330
5
100
AcDbSymbolTableRecord
100
AcDbLinetypeTableRecord
  2
ByLayer
 70
     0
  3

 72
    65
 73
     0
 40
0.0
  0
LTYPE
  5
16
330
5
100
AcDbSymbolTableRecord
100
AcDbLinetypeTableRecord
  2
Continuous
 70
     0
  3
Solid line
 72
    65
 73
     0
 40
0.0
  0
LTYPE
  5
6E
330
5
100
AcDbSymbolTableRecord
100
AcDbLinetypeTableRecord
  2
HIDDEN
 70
     0
  3
Hidden __ __ __ __ __ __ __ __ __ __ __ __ __ __
 72
    65
 73
     2
 40
1.905
 49
1.27
 74
     0
 49
-0.635
 74
     0
  0
LTYPE
  5
6F
330
5
100
AcDbSymbolTableRecord
100
AcDbLinetypeTableRecord
  2
PHANTOM
 70
     0
  3
Phantom ______  __  __  ______  __  __  ______
 72
    65
 73
     6
 40
12.7
 49
6.35
 74
     0
 49
-1.27
 74
     0
 49
1.27
 74
     0
 49
-1.27
 74
     0
 49
1.27
 74
     0
 49
-1.27
 74
     0
  0
LTYPE
  5
70
330
5
100
AcDbSymbolTableRecord
100
AcDbLinetypeTableRecord
  2
CENTER
 70
     0
  3
Center ____ _ ____ _ ____ _ ____ _ ____ _ ____
 72
    65
 73
     4
 40
10.16
 49
6.35
 74
     0
 49
-1.27
 74
     0
 49
1.27
 74
     0
 49
-1.27
 74
     0
  0
LTYPE
  5
71
330
5
100
AcDbSymbolTableRecord
100
AcDbLinetypeTableRecord
  2
CENTERX2
 70
     0
  3
Center (2x) ________  __  ________  __  _____
 72
    65
 73
     4
 40
20.32
 49
12.7
 74
     0
 49
-2.54
 74
     0
 49
2.54
 74
     0
 49
-2.54
 74
     0
  0
LTYPE
  5
72
330
5
100
AcDbSymbolTableRecord
100
AcDbLinetypeTableRecord
  2
DOT2
 70
     0
  3
Dot (.5x) ........................................
 72
    65
 73
     2
 40
0.635
 49
0.0
 74
     0
 49
-0.635
 74
     0
  0
ENDTAB
  0
TABLE
  2
LAYER
  5
2
330
0
100
AcDbSymbolTable
 70
    17
  0
LAYER
  5
10
330
2
100
AcDbSymbolTableRecord
100
AcDbLayerTableRecord
  2
0
 70
     0
 62
     7
  6
Continuous
370
    -3
390
F
  0
LAYER
  5
73
330
2
100
AcDbSymbolTableRecord
100
AcDbLayerTableRecord
  2
FORMAT
 70
     0
 62
     7
  6
Continuous
370
    -3
390
F
  0
LAYER
  5
74
330
2
100
AcDbSymbolTableRecord
100
AcDbLayerTableRecord
  2
YARDIMCI_GEOMETRI
 70
     0
 62
    -6
  6
Continuous
290
     0
370
    -3
390
F
  0
LAYER
  5
75
330
2
100
AcDbSymbolTableRecord
100
AcDbLayerTableRecord
  2
SAYFA_CERCEVESI
 70
     0
 62
     7
  6
Continuous
370
    25
390
F
  0
LAYER
  5
76
330
2
100
AcDbSymbolTableRecord
100
AcDbLayerTableRecord
  2
ANTET
 70
     0
 62
     7
  6
Continuous
370
    -3
390
F
  0
LAYER
  5
77
330
2
100
AcDbSymbolTableRecord
100
AcDbLayerTableRecord
  2
OLCU
 70
     0
 62
   150
  6
Continuous
370
    -3
390
F
  0
LAYER
  5
78
330
2
100
AcDbSymbolTableRecord
100
AcDbLayerTableRecord
  2
METIN
 70
     0
 62
    96
  6
Continuous
370
    -3
390
F
  0
LAYER
  5
79
330
2
100
AcDbSymbolTableRecord
100
AcDbLayerTableRecord
  2
BALON
 70
     0
 62
     5
  6
Continuous
370
    -3
390
F
  0
LAYER
  5
7A
330
2
100
AcDbSymbolTableRecord
100
AcDbLayerTableRecord
  2
VURGU
 70
     0
 62
     7
  6
Continuous
370
    -3
390
F
  0
LAYER
  5
7B
330
2
100
AcDbSymbolTableRecord
100
AcDbLayerTableRecord
  2
SILIK
 70
     0
 62
     7
  6
Continuous
370
    -3
390
F
  0
LAYER
  5
7C
330
2
100
AcDbSymbolTableRecord
100
AcDbLayerTableRecord
  2
MODEL
 70
     0
 62
     7
  6
Continuous
370
    -3
390
F
  0
LAYER
  5
7D
330
2
100
AcDbSymbolTableRecord
100
AcDbLayerTableRecord
  2
DETAYLANDıRMA
 70
     0
 62
   190
  6
Continuous
370
    -3
390
F
  0
LAYER
  5
7E
330
2
100
AcDbSymbolTableRecord
100
AcDbLayerTableRecord
  2
TOLERANS
 70
     0
 62
   230
  6
Continuous
370
    -3
390
F
  0
LAYER
  5
7F
330
2
100
AcDbSymbolTableRecord
100
AcDbLayerTableRecord
  2
MERKEZ_CIZGILERI
 70
     0
 62
    30
  6
Continuous
370
    -3
390
F
  0
LAYER
  5
80
330
2
100
AcDbSymbolTableRecord
100
AcDbLayerTableRecord
  2
KESIT-DETAY_CIZGILERI
 70
     0
 62
     7
  6
Continuous
370
    -3
390
F
  0
LAYER
  5
81
330
2
100
AcDbSymbolTableRecord
100
AcDbLayerTableRecord
  2
\U+041E\U+0421\U+0415\U+0412\U+042B\U+0415
 70
     0
 62
     7
  6
Continuous
370
    -3
390
F
  0
LAYER
  5
82
330
2
100
AcDbSymbolTableRecord
100
AcDbLayerTableRecord
  2
\U+0412\U+041E\U+0414\U+042F\U+041D\U+042B\U+0415_\U+0417\U+041D\U+0410\U+041A\U+0418
 70
     0
 62
    11
  6
Continuous
370
    -3
390
F
  0
ENDTAB
  0
TABLE
  2
STYLE
  5
3
330
0
100
AcDbSymbolTable
 70
     1
  0
STYLE
  5
11
330
3
100
AcDbSymbolTableRecord
100
AcDbTextStyleTableRecord
  2
Standard
 70
     0
 40
0.0
 41
1.0
 50
0.0
 71
     0
 42
3.5
  3
txt
  4

  0
ENDTAB
  0
TABLE
  2
VIEW
  5
6
330
0
100
AcDbSymbolTable
 70
     0
  0
ENDTAB
  0
TABLE
  2
UCS
  5
7
330
0
100
AcDbSymbolTable
 70
     0
  0
ENDTAB
  0
TABLE
  2
APPID
  5
9
330
0
100
AcDbSymbolTable
 70
     1
  0
APPID
  5
12
330
9
100
AcDbSymbolTableRecord
100
AcDbRegAppTableRecord
  2
ACAD
 70
     0
  0
ENDTAB
  0
TABLE
  2
DIMSTYLE
  5
A
330
0
100
AcDbSymbolTable
 70
     1
100
AcDbDimStyleTable
  0
DIMSTYLE
105
27
330
A
100
AcDbSymbolTableRecord
100
AcDbDimStyleTableRecord
  2
ISO-25
 70
     0
 41
2.5
 42
0.625
 43
3.75
 44
1.25
 73
     0
 74
     0
 77
     1
 78
     8
140
2.5
141
2.5
143
0.0393700787
147
0.625
171
     3
172
     1
178
     0
271
     2
272
     2
274
     3
278
    44
283
     0
284
     8
340
11
  0
ENDTAB
  0
TABLE
  2
BLOCK_RECORD
  5
1
330
0
100
AcDbSymbolTable
 70
     2
  0
BLOCK_RECORD
  5
1F
330
1
100
AcDbSymbolTableRecord
100
AcDbBlockTableRecord
  2
*Model_Space
340
22
  0
BLOCK_RECORD
  5
1B
330
1
100
AcDbSymbolTableRecord
100
AcDbBlockTableRecord
  2
*Paper_Space
340
1E
  0
BLOCK_RECORD
  5
23
330
1
100
AcDbSymbolTableRecord
100
AcDbBlockTableRecord
  2
*Paper_Space0
340
26
  0
BLOCK_RECORD
  5
88
330
1
100
AcDbSymbolTableRecord
100
AcDbBlockTableRecord
  2
SW_CENTERMARKSYMBOL_0
340
0
102
{BLKREFS
331
93
102
}
  0
ENDTAB
  0
ENDSEC
  0
SECTION
  2
BLOCKS
  0
BLOCK
  5
20
330
1F
100
AcDbEntity
  8
0
100
AcDbBlockBegin
  2
*Model_Space
 70
     0
 10
0.0
 20
0.0
 30
0.0
  3
*Model_Space
  1

  0
ENDBLK
  5
21
330
1F
100
AcDbEntity
  8
0
100
AcDbBlockEnd
  0
BLOCK
  5
1C
330
1B
100
AcDbEntity
 67
     1
  8
0
100
AcDbBlockBegin
  2
*Paper_Space
 70
     0
 10
0.0
 20
0.0
 30
0.0
  3
*Paper_Space
  1

  0
ENDBLK
  5
1D
330
1B
100
AcDbEntity
 67
     1
  8
0
100
AcDbBlockEnd
  0
BLOCK
  5
24
330
23
100
AcDbEntity
  8
0
100
AcDbBlockBegin
  2
*Paper_Space0
 70
     0
 10
0.0
 20
0.0
 30
0.0
  3
*Paper_Space0
  1

  0
ENDBLK
  5
25
330
23
100
AcDbEntity
  8
0
100
AcDbBlockEnd
  0
BLOCK
  5
89
330
88
100
AcDbEntity
  8
0
100
AcDbBlockBegin
  2
SW_CENTERMARKSYMBOL_0
 70
     0
 10
0.0
 20
0.0
 30
0.0
  3
SW_CENTERMARKSYMBOL_0
  1

  0
LINE
  5
8B
330
88
100
AcDbEntity
  8
FORMAT
 62
     0
100
AcDbLine
 10
0.0
 20
0.0
 30
0.0
 11
0.0
 21
2.5
 31
0.0
  0
LINE
  5
8C
330
88
100
AcDbEntity
  8
FORMAT
 62
     0
100
AcDbLine
 10
0.0
 20
0.0
 30
0.0
 11
-2.5
 21
0.0
 31
0.0
  0
LINE
  5
8D
330
88
100
AcDbEntity
  8
FORMAT
 62
     0
100
AcDbLine
 10
0.0
 20
0.0
 30
0.0
 11
0.0
 21
-2.5
 31
0.0
  0
LINE
  5
8E
330
88
100
AcDbEntity
  8
FORMAT
 62
     0
100
AcDbLine
 10
0.0
 20
0.0
 30
0.0
 11
2.5
 21
0.0
 31
0.0
  0
LINE
  5
8F
330
88
100
AcDbEntity
  8
FORMAT
 62
     0
100
AcDbLine
 10
0.0
 20
5.0
 30
0.0
 11
0.0
 21
227.5
 31
0.0
  0
LINE
  5
90
330
88
100
AcDbEntity
  8
FORMAT
 62
     0
100
AcDbLine
 10
-5.0
 20
0.0
 30
0.0
 11
-227.5
 21
0.0
 31
0.0
  0
LINE
  5
91
330
88
100
AcDbEntity
  8
FORMAT
 62
     0
100
AcDbLine
 10
0.0
 20
-5.0
 30
0.0
 11
0.0
 21
-227.5
 31
0.0
  0
LINE
  5
92
330
88
100
AcDbEntity
  8
FORMAT
 62
     0
100
AcDbLine
 10
5.0
 20
0.0
 30
0.0
 11
227.5
 21
0.0
 31
0.0
  0
ENDBLK
  5
8A
330
88
100
AcDbEntity
  8
0
100
AcDbBlockEnd
  0
ENDSEC
  0
SECTION
  2
ENTITIES
  0
CIRCLE
  5
83
330
1F
100
AcDbEntity
  8
0
  6
Continuous
 62
     7
370
    25
100
AcDbCircle
 10
139.395004093
 20
107.5851680021
 30
0.0
 40
225.0
  0
CIRCLE
  5
84
330
1F
100
AcDbEntity
  8
0
  6
Continuous
 62
     7
370
    25
100
AcDbCircle
 10
139.395004093
 20
107.5851680021
 30
0.0
 40
184.1000000000001
  0
CIRCLE
  5
85
330
1F
100
AcDbEntity
  8
0
  6
Continuous
 62
     7
370
    25
100
AcDbCircle
 10
139.395004093
 20
107.5851680021
 30
0.0
 40
183.532489899969
  0
CIRCLE
  5
86
330
1F
100
AcDbEntity
  8
0
  6
Continuous
 62
     7
370
    25
100
AcDbCircle
 10
139.395004093
 20
107.5851680021
 30
0.0
 40
145.8675101000311
  0
CIRCLE
  5
87
330
1F
100
AcDbEntity
  8
0
  6
Continuous
 62
     7
370
    25
100
AcDbCircle
 10
139.395004093
 20
107.5851680021
 30
0.0
 40
145.3
  0
INSERT
  5
93
330
1F
100
AcDbEntity
  8
FORMAT
 62
     7
100
AcDbBlockReference
  2
SW_CENTERMARKSYMBOL_0
 10
139.395004093
 20
107.5851680021
 30
0.0
  0
LINE
  5
94
330
1F
100
AcDbEntity
  8
0
  6
Continuous
 62
     7
370
    25
100
AcDbLine
 10
-570.708296777
 20
332.5851680021
 30
0.0
 11
-773.2177238032
 21
332.5851680021
 31
0.0
  0
LINE
  5
95
330
1F
100
AcDbEntity
  8
0
  6
Continuous
 62
     7
370
    25
100
AcDbLine
 10
-773.2177238032
 20
-117.4148319979
 30
0.0
 11
-570.708296777
 21
-117.4148319979
 31
0.0
  0
ARC
  5
96
330
1F
100
AcDbEntity
  8
0
  6
Continuous
 62
     7
370
    25
100
AcDbCircle
 10
-570.708296777
 20
330.5851680021
 30
0.0
 40
2.0
100
AcDbArc
 50
62.4364306728
 51
90.0
  0
ARC
  5
97
330
1F
100
AcDbEntity
  8
0
  6
Continuous
 62
     7
370
    25
100
AcDbCircle
 10
-570.708296777
 20
-115.4148319979
 30
0.0
 40
2.0
100
AcDbArc
 50
270.0
 51
297.5635693272
  0
LINE
  5
98
330
1F
100
AcDbEntity
  8
0
  6
Continuous
 62
     7
370
    25
100
AcDbLine
 10
-569.7828318528
 20
-117.1878279579
 30
0.0
 11
-479.6526157535
 21
-70.1418360379
 31
0.0
  0
LINE
  5
99
330
1F
100
AcDbEntity
  8
0
  6
Continuous
 62
     7
370
    25
100
AcDbLine
 10
-479.6526157535
 20
285.3121720421
 30
0.0
 11
-569.7828318528
 21
332.3581639621
 31
0.0
  0
ARC
  5
9A
330
1F
100
AcDbEntity
  8
0
  6
Continuous
 62
     7
370
    25
100
AcDbCircle
 10
-478.7271508293
 20
287.0851680021
 30
0.0
 40
2.0
100
AcDbArc
 50
242.4364306728
 51
270.0
  0
ARC
  5
9B
330
1F
100
AcDbEntity
  8
0
  6
Continuous
 62
     7
370
    25
100
AcDbCircle
 10
-478.7271508293
 20
-71.9148319979
 30
0.0
 40
2.0
100
AcDbArc
 50
90.0
 51
117.5635693272
  0
LINE
  5
9C
330
1F
100
AcDbEntity
  8
0
  6
Continuous
 62
     7
370
    25
100
AcDbLine
 10
-306.2177238032
 20
285.0851680021
 30
0.0
 11
-478.7271508293
 21
285.0851680021
 31
0.0
  0
LINE
  5
9D
330
1F
100
AcDbEntity
  8
0
  6
Continuous
 62
     7
370
    25
100
AcDbLine
 10
-478.7271508293
 20
-69.9148319979
 30
0.0
 11
-306.2177238032
 21
-69.9148319979
 31
0.0
  0
LINE
  5
9E
330
1F
100
AcDbEntity
  8
0
  6
Continuous
 62
     7
370
    25
100
AcDbLine
 10
-773.2177238032
 20
332.5851680021
 30
0.0
 11
-773.2177238032
 21
-117.4148319979
 31
0.0
  0
LINE
  5
9F
330
1F
100
AcDbEntity
  8
0
  6
Continuous
 62
     7
370
    25
100
AcDbLine
 10
-306.2177238032
 20
285.0851680021
 30
0.0
 11
-306.2177238032
 21
-69.9148319979
 31
0.0
  0
LINE
  5
A0
330
1F
100
AcDbEntity
  8
0
  6
Continuous
 62
     1
370
    25
100
AcDbLine
 10
-570.708296777
 20
332.5851680021
 30
0.0
 11
-570.708296777
 21
-117.4148319979
 31
0.0
  0
LINE
  5
A1
330
1F
100
AcDbEntity
  8
0
  6
Continuous
 62
     1
370
    25
100
AcDbLine
 10
-569.7828318528
 20
332.3581639621
 30
0.0
 11
-569.7828318528
 21
-117.1878279579
 31
0.0
  0
LINE
  5
A2
330
1F
100
AcDbEntity
  8
0
  6
Continuous
 62
     1
370
    25
100
AcDbLine
 10
-479.6526157535
 20
285.3121720421
 30
0.0
 11
-479.6526157535
 21
-70.1418360379
 31
0.0
  0
LINE
  5
A3
330
1F
100
AcDbEntity
  8
0
  6
Continuous
 62
     1
370
    25
100
AcDbLine
 10
-478.7271508293
 20
285.0851680021
 30
0.0
 11
-478.7271508293
 21
-69.9148319979
 31
0.0
  0
LINE
  5
A4
330
1F
100
AcDbEntity
  8
0
  6
Continuous
 62
     7
370
    25
100
AcDbLine
 10
816.1459928895
 20
-117.4148319979
 30
0.0
 11
1018.6554199156
 21
-117.4148319979
 31
0.0
  0
LINE
  5
A5
330
1F
100
AcDbEntity
  8
0
  6
Continuous
 62
     7
370
    25
100
AcDbLine
 10
1018.6554199156
 20
332.5851680021
 30
0.0
 11
816.1459928895
 21
332.5851680021
 31
0.0
  0
ARC
  5
A6
330
1F
100
AcDbEntity
  8
0
  6
Continuous
 62
     7
370
    25
100
AcDbCircle
 10
816.1459928895
 20
-115.4148319979
 30
0.0
 40
2.0
100
AcDbArc
 50
242.4364306728
 51
270.0
  0
ARC
  5
A7
330
1F
100
AcDbEntity
  8
0
  6
Continuous
 62
     7
370
    25
100
AcDbCircle
 10
816.1459928895
 20
330.5851680021
 30
0.0
 40
2.0
100
AcDbArc
 50
90.0
 51
117.5635693272
  0
LINE
  5
A8
330
1F
100
AcDbEntity
  8
0
  6
Continuous
 62
     7
370
    25
100
AcDbLine
 10
815.2205279653
 20
332.3581639621
 30
0.0
 11
725.090311866
 21
285.3121720421
 31
0.0
  0
LINE
  5
A9
330
1F
100
AcDbEntity
  8
0
  6
Continuous
 62
     7
370
    25
100
AcDbLine
 10
725.090311866
 20
-70.1418360379
 30
0.0
 11
815.2205279653
 21
-117.1878279579
 31
0.0
  0
ARC
  5
AA
330
1F
100
AcDbEntity
  8
0
  6
Continuous
 62
     7
370
    25
100
AcDbCircle
 10
724.1648469418
 20
-71.9148319979
 30
0.0
 40
2.0
100
AcDbArc
 50
62.4364306728
 51
90.0
  0
ARC
  5
AB
330
1F
100
AcDbEntity
  8
0
  6
Continuous
 62
     7
370
    25
100
AcDbCircle
 10
724.1648469418
 20
287.0851680021
 30
0.0
 40
2.0
100
AcDbArc
 50
270.0
 51
297.5635693272
  0
LINE
  5
AC
330
1F
100
AcDbEntity
  8
0
  6
Continuous
 62
     7
370
    25
100
AcDbLine
 10
551.6554199156
 20
-69.9148319979
 30
0.0
 11
724.1648469418
 21
-69.9148319979
 31
0.0
  0
LINE
  5
AD
330
1F
100
AcDbEntity
  8
0
  6
Continuous
 62
     7
370
    25
100
AcDbLine
 10
724.1648469418
 20
285.0851680021
 30
0.0
 11
551.6554199156
 21
285.0851680021
 31
0.0
  0
LINE
  5
AE
330
1F
100
AcDbEntity
  8
0
  6
Continuous
 62
     7
370
    25
100
AcDbLine
 10
1018.6554199156
 20
107.5851680021
 30
0.0
 11
1018.6554199156
 21
332.5851680021
 31
0.0
  0
LINE
  5
AF
330
1F
100
AcDbEntity
  8
0
  6
Continuous
 62
     7
370
    25
100
AcDbLine
 10
1018.6554199156
 20
-117.4148319979
 30
0.0
 11
1018.6554199156
 21
107.5851680021
 31
0.0
  0
LINE
  5
B0
330
1F
100
AcDbEntity
  8
0
  6
Continuous
 62
     7
370
    25
100
AcDbLine
 10
551.6554199156
 20
107.5851680021
 30
0.0
 11
551.6554199156
 21
285.0851680021
 31
0.0
  0
LINE
  5
B1
330
1F
100
AcDbEntity
  8
0
  6
Continuous
 62
     7
370
    25
100
AcDbLine
 10
551.6554199156
 20
-69.9148319979
 30
0.0
 11
551.6554199156
 21
107.5851680021
 31
0.0
  0
LINE
  5
B2
330
1F
100
AcDbEntity
  8
0
  6
Continuous
 62
     1
370
    25
100
AcDbLine
 10
816.1459928895
 20
107.5851680021
 30
0.0
 11
816.1459928895
 21
332.5851680021
 31
0.0
  0
LINE
  5
B3
330
1F
100
AcDbEntity
  8
0
  6
Continuous
 62
     1
370
    25
100
AcDbLine
 10
816.1459928895
 20
-117.4148319979
 30
0.0
 11
816.1459928895
 21
107.5851680021
 31
0.0
  0
LINE
  5
B4
330
1F
100
AcDbEntity
  8
0
  6
Continuous
 62
     1
370
    25
100
AcDbLine
 10
815.2205279653
 20
107.5851680021
 30
0.0
 11
815.2205279653
 21
332.3581639621
 31
0.0
  0
LINE
  5
B5
330
1F
100
AcDbEntity
  8
0
  6
Continuous
 62
     1
370
    25
100
AcDbLine
 10
815.2205279653
 20
-117.1878279579
 30
0.0
 11
815.2205279653
 21
107.5851680021
 31
0.0
  0
LINE
  5
B6
330
1F
100
AcDbEntity
  8
0
  6
Continuous
 62
     1
370
    25
100
AcDbLine
 10
725.090311866
 20
107.5851680021
 30
0.0
 11
725.090311866
 21
285.3121720421
 31
0.0
  0
LINE
  5
B7
330
1F
100
AcDbEntity
  8
0
  6
Continuous
 62
     1
370
    25
100
AcDbLine
 10
725.090311866
 20
-70.1418360379
 30
0.0
 11
725.090311866
 21
107.5851680021
 31
0.0
  0
LINE
  5
B8
330
1F
100
AcDbEntity
  8
0
  6
Continuous
 62
     1
370
    25
100
AcDbLine
 10
724.1648469418
 20
107.5851680021
 30
0.0
 11
724.1648469418
 21
285.0851680021
 31
0.0
  0
LINE
  5
B9
330
1F
100
AcDbEntity
  8
0
  6
Continuous
 62
     1
370
    25
100
AcDbLine
 10
724.1648469418
 20
-69.9148319979
 30
0.0
 11
724.1648469418
 21
107.5851680021
 31
0.0
  0
LINE
  5
BA
330
1F
100
AcDbEntity
  8
0
  6
Continuous
 62
     7
370
    25
100
AcDbLine
 10
364.395004093
 20
731.053624836
 30
0.0
 11
364.395004093
 21
933.5630518622
 31
0.0
  0
LINE
  5
BB
330
1F
100
AcDbEntity
  8
0
  6
Continuous
 62
     7
370
    25
100
AcDbLine
 10
-85.604995907
 20
933.5630518622
 30
0.0
 11
-85.604995907
 21
731.053624836
 31
0.0
  0
ARC
  5
BC
330
1F
100
AcDbEntity
  8
0
  6
Continuous
 62
     7
370
    25
100
AcDbCircle
 10
362.395004093
 20
731.053624836
 30
0.0
 40
2.000000000000028
100
AcDbArc
 50
332.4364306728
 51
0.0
  0
ARC
  5
BD
330
1F
100
AcDbEntity
  8
0
  6
Continuous
 62
     7
370
    25
100
AcDbCircle
 10
-83.604995907
 20
731.053624836
 30
0.0
 40
2.0
100
AcDbArc
 50
180.0
 51
207.5635693272
  0
LINE
  5
BE
330
1F
100
AcDbEntity
  8
0
  6
Continuous
 62
     7
370
    25
100
AcDbLine
 10
-85.3779918669
 20
730.1281599118
 30
0.0
 11
-38.331999947
 21
639.9979438125
 31
0.0
  0
LINE
  5
BF
330
1F
100
AcDbEntity
  8
0
  6
Continuous
 62
     7
370
    25
100
AcDbLine
 10
317.1220081331
 20
639.9979438125
 30
0.0
 11
364.168000053
 21
730.1281599118
 31
0.0
  0
ARC
  5
C0
330
1F
100
AcDbEntity
  8
0
  6
Continuous
 62
     7
370
    25
100
AcDbCircle
 10
318.895004093
 20
639.0724788884
 30
0.0
 40
2.0
100
AcDbArc
 50
152.4364306728
 51
180.0
  0
ARC
  5
C1
330
1F
100
AcDbEntity
  8
0
  6
Continuous
 62
     7
370
    25
100
AcDbCircle
 10
-40.104995907
 20
639.0724788884
 30
0.0
 40
2.0
100
AcDbArc
 50
0.0
 51
27.5635693272
  0
LINE
  5
C2
330
1F
100
AcDbEntity
  8
0
  6
Continuous
 62
     7
370
    25
100
AcDbLine
 10
316.895004093
 20
466.5630518622
 30
0.0
 11
316.895004093
 21
639.0724788884
 31
0.0
  0
LINE
  5
C3
330
1F
100
AcDbEntity
  8
0
  6
Continuous
 62
     7
370
    25
100
AcDbLine
 10
-38.104995907
 20
639.0724788884
 30
0.0
 11
-38.104995907
 21
466.5630518622
 31
0.0
  0
LINE
  5
C4
330
1F
100
AcDbEntity
  8
0
  6
Continuous
 62
     7
370
    25
100
AcDbLine
 10
364.395004093
 20
933.5630518622
 30
0.0
 11
-85.604995907
 21
933.5630518622
 31
0.0
  0
LINE
  5
C5
330
1F
100
AcDbEntity
  8
0
  6
Continuous
 62
     7
370
    25
100
AcDbLine
 10
316.895004093
 20
466.5630518622
 30
0.0
 11
-38.104995907
 21
466.5630518622
 31
0.0
  0
LINE
  5
C6
330
1F
100
AcDbEntity
  8
0
  6
Continuous
 62
     1
370
    25
100
AcDbLine
 10
364.395004093
 20
731.053624836
 30
0.0
 11
-85.604995907
 21
731.053624836
 31
0.0
  0
LINE
  5
C7
330
1F
100
AcDbEntity
  8
0
  6
Continuous
 62
     1
370
    25
100
AcDbLine
 10
364.168000053
 20
730.1281599118
 30
0.0
 11
-85.3779918669
 21
730.1281599118
 31
0.0
  0
LINE
  5
C8
330
1F
100
AcDbEntity
  8
0
  6
Continuous
 62
     1
370
    25
100
AcDbLine
 10
317.1220081331
 20
639.9979438125
 30
0.0
 11
-38.331999947
 21
639.9979438125
 31
0.0
  0
LINE
  5
C9
330
1F
100
AcDbEntity
  8
0
  6
Continuous
 62
     1
370
    25
100
AcDbLine
 10
316.895004093
 20
639.0724788884
 30
0.0
 11
-38.104995907
 21
639.0724788884
 31
0.0
  0
LINE
  5
CA
330
1F
100
AcDbEntity
  8
0
  6
Continuous
 62
     7
370
    25
100
AcDbLine
 10
-85.604995907
 20
-525.2928475194
 30
0.0
 11
-85.604995907
 21
-727.8022745455
 31
0.0
  0
LINE
  5
CB
330
1F
100
AcDbEntity
  8
0
  6
Continuous
 62
     7
370
    25
100
AcDbLine
 10
364.395004093
 20
-727.8022745455
 30
0.0
 11
364.395004093
 21
-525.2928475194
 31
0.0
  0
ARC
  5
CC
330
1F
100
AcDbEntity
  8
0
  6
Continuous
 62
     7
370
    25
100
AcDbCircle
 10
-83.604995907
 20
-525.2928475194
 30
0.0
 40
2.0
100
AcDbArc
 50
152.4364306728
 51
180.0
  0
ARC
  5
CD
330
1F
100
AcDbEntity
  8
0
  6
Continuous
 62
     7
370
    25
100
AcDbCircle
 10
362.395004093
 20
-525.2928475194
 30
0.0
 40
2.000000000000028
100
AcDbArc
 50
0.0
 51
27.5635693272
  0
LINE
  5
CE
330
1F
100
AcDbEntity
  8
0
  6
Continuous
 62
     7
370
    25
100
AcDbLine
 10
364.168000053
 20
-524.3673825952
 30
0.0
 11
317.1220081331
 21
-434.2371664959
 31
0.0
  0
LINE
  5
CF
330
1F
100
AcDbEntity
  8
0
  6
Continuous
 62
     7
370
    25
100
AcDbLine
 10
-38.331999947
 20
-434.2371664959
 30
0.0
 11
-85.3779918669
 21
-524.3673825952
 31
0.0
  0
ARC
  5
D0
330
1F
100
AcDbEntity
  8
0
  6
Continuous
 62
     7
370
    25
100
AcDbCircle
 10
-40.104995907
 20
-433.3117015717
 30
0.0
 40
2.000000000000011
100
AcDbArc
 50
332.4364306728
 51
0.0
  0
ARC
  5
D1
330
1F
100
AcDbEntity
  8
0
  6
Continuous
 62
     7
370
    25
100
AcDbCircle
 10
318.895004093
 20
-433.3117015717
 30
0.0
 40
2.0
100
AcDbArc
 50
180.0
 51
207.5635693272
  0
LINE
  5
D2
330
1F
100
AcDbEntity
  8
0
  6
Continuous
 62
     7
370
    25
100
AcDbLine
 10
-38.104995907
 20
-260.8022745455
 30
0.0
 11
-38.104995907
 21
-433.3117015717
 31
0.0
  0
LINE
  5
D3
330
1F
100
AcDbEntity
  8
0
  6
Continuous
 62
     7
370
    25
100
AcDbLine
 10
316.895004093
 20
-433.3117015717
 30
0.0
 11
316.895004093
 21
-260.8022745455
 31
0.0
  0
LINE
  5
D4
330
1F
100
AcDbEntity
  8
0
  6
Continuous
 62
     7
370
    25
100
AcDbLine
 10
-85.604995907
 20
-727.8022745455
 30
0.0
 11
364.395004093
 21
-727.8022745455
 31
0.0
  0
LINE
  5
D5
330
1F
100
AcDbEntity
  8
0
  6
Continuous
 62
     7
370
    25
100
AcDbLine
 10
-38.104995907
 20
-260.8022745455
 30
0.0
 11
316.895004093
 21
-260.8022745455
 31
0.0
  0
LINE
  5
D6
330
1F
100
AcDbEntity
  8
0
  6
Continuous
 62
     1
370
    25
100
AcDbLine
 10
-85.604995907
 20
-525.2928475194
 30
0.0
 11
364.395004093
 21
-525.2928475194
 31
0.0
  0
LINE
  5
D7
330
1F
100
AcDbEntity
  8
0
  6
Continuous
 62
     1
370
    25
100
AcDbLine
 10
-85.3779918669
 20
-524.3673825952
 30
0.0
 11
364.168000053
 21
-524.3673825952
 31
0.0
  0
LINE
  5
D8
330
1F
100
AcDbEntity
  8
0
  6
Continuous
 62
     1
370
    25
100
AcDbLine
 10
-38.331999947
 20
-434.2371664959
 30
0.0
 11
317.1220081331
 21
-434.2371664959
 31
0.0
  0
LINE
  5
D9
330
1F
100
AcDbEntity
  8
0
  6
Continuous
 62
     1
370
    25
100
AcDbLine
 10
-38.104995907
 20
-433.3117015717
 30
0.0
 11
316.895004093
 21
-433.3117015717
 31
0.0
  0
LINE
  5
DA
330
1F
100
AcDbEntity
  8
0
  6
Continuous
 62
     7
370
    25
100
AcDbLine
 10
870.6567839441
 20
-290.0874349355
 30
0.0
 11
727.4609948397
 21
-207.4222654631
 31
0.0
  0
LINE
  5
DB
330
1F
100
AcDbEntity
  8
0
  6
Continuous
 62
     7
370
    25
100
AcDbLine
 10
502.4792799966
 20
-597.1442535344
 30
0.0
 11
645.675069101
 21
-679.8094230068
 31
0.0
  0
SPLINE
  5
DC
330
1F
100
AcDbEntity
  8
0
  6
Continuous
 62
     7
370
    25
100
AcDbSpline
210
0.0
220
0.0
230
1.0
 70
     8
 71
     3
 72
    12
 73
     8
 74
     0
 42
0.00000001
 43
0.00000001
 40
0.0
 40
0.0
 40
0.0
 40
0.0
 40
0.0514744600690069
 40
0.3626756866559302
 40
0.6735816826352937
 40
0.9842042005412018
 40
1.0
 40
1.0
 40
1.0
 40
1.0
 10
894.319092147467
 20
-311.1634795394559
 30
0.0
 10
894.1504033565284
 20
-310.9309939238632
 30
0.0
 10
892.9618659147991
 20
-309.2929606125929
 30
0.0
 10
890.5702795989956
 20
-306.4785335986307
 30
0.0
 10
887.1165532445128
 20
-302.7776602993548
 30
0.0
 10
884.6689897217733
 20
-300.3631956505367
 30
0.0
 10
883.3329605363914
 20
-299.248448086294
 30
0.0
 10
883.2683083769974
 20
-299.1945040272898
 30
0.0
  0
SPLINE
  5
DD
330
1F
100
AcDbEntity
  8
0
  6
Continuous
 62
     7
370
    25
100
AcDbSpline
210
0.0
220
0.0
230
1.0
 70
     8
 71
     3
 72
    12
 73
     8
 74
     0
 42
0.00000001
 43
0.00000001
 40
0.0
 40
0.0
 40
0.0
 40
0.0
 40
0.0429839345611088
 40
0.3287679860638994
 40
0.6147501493962043
 40
0.9009670592168043
 40
0.9999999999999999
 40
0.9999999999999999
 40
0.9999999999999999
 40
0.9999999999999999
 10
660.9831507842596
 20
-686.52644832637
 30
0.0
 10
661.218679629601
 20
-686.6079045389471
 30
0.0
 10
663.0201513872104
 20
-687.2309325431256
 30
0.0
 10
666.5164451685239
 20
-688.127105452621
 30
0.0
 10
671.4810805879116
 20
-689.1719419673616
 30
0.0
 10
675.446498801421
 20
-689.8003648671224
 30
0.0
 10
677.7853226239074
 20
-689.9938995999217
 30
0.0
 10
678.3865444044004
 20
-690.0436499468792
 30
0.0
  0
LINE
  5
DE
330
1F
100
AcDbEntity
  8
0
  6
Continuous
 62
     7
370
    25
100
AcDbLine
 10
695.8669913571
 20
-690.1939021609
 30
0.0
 11
772.7750930869
 21
-684.1056984758
 31
0.0
  0
LINE
  5
DF
330
1F
100
AcDbEntity
  8
0
  6
Continuous
 62
     7
370
    25
100
AcDbLine
 10
937.9376067053
 20
-398.0048337584
 30
0.0
 11
904.7495593541
 21
-328.3594760609
 31
0.0
  0
LINE
  5
E0
330
1F
100
AcDbEntity
  8
0
  6
Continuous
 62
     7
370
    25
100
AcDbLine
 10
1033.9317917537
 20
-439.1908805368
 30
0.0
 11
928.5831273507
 21
-378.3743910923
 31
0.0
  0
LINE
  5
E1
330
1F
100
AcDbEntity
  8
0
  6
Continuous
 62
     7
370
    25
100
AcDbLine
 10
751.0975523078
 20
-685.8217372375
 30
0.0
 11
856.4462167108
 21
-746.638226682
 31
0.0
  0
LWPOLYLINE
  5
E2
330
1F
100
AcDbEntity
  8
0
  6
Continuous
 62
     7
370
    25
100
AcDbPolyline
 90
      160
 70
   128
 43
0.0
 10
455.8711116512
 20
-494.1291720788
 10
455.9953187724
 20
-486.7992489416
 10
456.3677462016
 20
-479.3373641196
 10
456.9878124374
 20
-471.75516846
 10
457.85454932
 20
-464.0645006614
 10
458.9666035427
 20
-456.2773687886
 10
460.3222387648
 20
-448.4059315236
 10
461.9193383228
 20
-440.4624791814
 10
463.7554085354
 20
-432.4594145198
 10
465.8275825969
 20
-424.4092333742
 10
468.1326250535
 20
-416.3245051469
 10
470.6669368549
 20
-408.2178531814
 10
473.4265609742
 20
-400.1019350523
 10
476.4071885859
 20
-391.9894228023
 10
479.6041657938
 20
-383.8929831565
 10
483.0125008974
 20
-375.825257744
 10
486.6268721862
 20
-367.7988433606
 10
490.4416362484
 20
-359.8262722994
 10
494.4508367827
 20
-351.9199927838
 10
498.6482138985
 20
-344.0923495307
 10
503.0272138896
 20
-336.3555644758
 10
507.5809994673
 20
-328.7217176906
 10
512.3024604362
 20
-321.2027285207
 10
517.1842247952
 20
-313.810336975
 10
522.2186702489
 20
-306.5560853955
 10
527.3979361083
 20
-299.4513004349
 10
532.7139355647
 20
-292.5070753714
 10
538.1583683158
 20
-285.7342527883
 10
543.7227335263
 20
-279.1434076439
 10
549.3983431004
 20
-272.7448307606
 10
555.1763352474
 20
-266.5485127567
 10
561.0476883186
 20
-260.5641284471
 10
567.0032348931
 20
-254.8010217375
 10
573.0336760919
 20
-249.2681910351
 10
579.1295960969
 20
-243.9742751981
 10
585.2814768526
 20
-238.9275400476
 10
591.4797129275
 20
-234.1358654616
 10
597.7146265118
 20
-229.606733071
 10
603.976482528
 20
-225.3472145786
 10
610.2555038313
 20
-221.3639607167
 10
616.5418864753
 20
-217.6631908635
 10
622.8258150198
 20
-214.2506833317
 10
629.0974778561
 20
-211.1317663468
 10
635.3470825274
 20
-208.3113097273
 10
641.5648710178
 20
-205.7937172816
 10
647.7411349887
 20
-203.5829199314
 10
653.866230937
 20
-201.6823695743
 10
659.9305952525
 20
-200.095033694
 10
665.9247591503
 20
-198.8233907271
 10
671.8393634548
 20
-197.8694261931
 10
677.6651732138
 20
-197.2346295945
 10
683.3930921166
 20
-196.9199920908
 10
689.014176698
 20
-196.926004951
 10
694.5196503016
 20
-197.2526587868
 10
699.900916784
 20
-197.899443567
 10
705.1495739362
 20
-198.865349414
 10
710.2574266033
 20
-200.1488681804
 10
715.2164994796
 20
-201.7479958041
 10
720.0190495615
 20
-203.6602354371
 10
724.6575782372
 20
-205.8826013442
 10
729.1248429946
 20
-208.4116235648
 10
733.4138687303
 20
-211.243353331
 10
737.5179586397
 20
-214.3733692328
 10
741.4307046736
 20
-217.7967841221
 10
745.1459975434
 20
-221.5082527428
 10
748.6580362605
 20
-225.5019800772
 10
751.9613371932
 20
-229.7717303943
 10
755.0507426293
 20
-234.3108369857
 10
757.921428829
 20
-239.1122125754
 10
760.5689135564
 20
-244.1683603852
 10
762.9890630786
 20
-249.4713858407
 10
765.1780986192
 20
-255.013008897
 10
767.1326022591
 20
-260.7845769676
 10
768.849522273
 20
-266.7770784341
 10
770.326177894
 20
-272.9811567167
 10
771.5602634997
 20
-279.3871248838
 10
772.5498522118
 20
-285.9849807764
 10
773.2933989052
 20
-292.7644226258
 10
773.7897426198
 20
-299.7148651383
 10
774.038108374
 20
-306.825456023
 10
774.038108374
 20
-314.0850929363
 10
773.7897426198
 20
-321.4824408169
 10
773.2933989052
 20
-329.0059495843
 10
772.5498522118
 20
-336.6438721725
 10
771.5602634997
 20
-344.3842828722
 10
770.326177894
 20
-352.2150959509
 10
768.849522273
 20
-360.1240845235
 10
767.1326022591
 20
-368.0988996433
 10
765.1780986192
 20
-376.127089583
 10
762.9890630786
 20
-384.1961192772
 10
760.5689135564
 20
-392.2933898937
 10
757.921428829
 20
-400.4062585057
 10
755.0507426293
 20
-408.522057832
 10
751.9613371932
 20
-416.6281160153
 10
748.6580362605
 20
-424.7117764079
 10
745.1459975434
 20
-432.7604173338
 10
741.4307046736
 20
-440.7614717957
 10
737.5179586397
 20
-448.7024470966
 10
733.4138687303
 20
-456.5709443464
 10
729.1248429946
 20
-464.3546778207
 10
724.6575782371
 20
-472.0414941436
 10
720.0190495615
 20
-479.6193912639
 10
715.2164994796
 20
-487.0765371947
 10
710.2574266033
 20
-494.401288488
 10
705.1495739362
 20
-501.5822084142
 10
699.900916784
 20
-508.6080848191
 10
694.5196503016
 20
-515.4679476307
 10
689.014176698
 20
-522.1510859877
 10
683.3930921166
 20
-528.6470649628
 10
677.6651732138
 20
-534.9457418559
 10
671.8393634548
 20
-541.0372820308
 10
665.9247591503
 20
-546.9121742707
 10
659.9305952525
 20
-552.5612456286
 10
653.866230937
 20
-557.9756757502
 10
647.7411349887
 20
-563.1470106457
 10
641.5648710178
 20
-568.0671758894
 10
635.3470825274
 20
-572.7284892274
 10
629.0974778561
 20
-577.1236725722
 10
622.8258150198
 20
-581.2458633669
 10
616.5418864753
 20
-585.0886252997
 10
610.2555038313
 20
-588.6459583542
 10
603.976482528
 20
-591.9123081769
 10
597.7146265118
 20
-594.8825747505
 10
591.4797129275
 20
-597.5521203562
 10
585.2814768526
 20
-599.9167768155
 10
579.1295960969
 20
-601.9728519981
 10
573.0336760919
 20
-603.7171355865
 10
567.0032348931
 20
-605.146904089
 10
561.0476883186
 20
-606.2599250919
 10
555.1763352474
 20
-607.054460745
 10
549.3983431004
 20
-607.5292704751
 10
543.7227335263
 20
-607.6836129232
 10
538.1583683158
 20
-607.517247102
 10
532.7139355647
 20
-607.0304327718
 10
527.3979361083
 20
-606.2239300356
 10
522.2186702489
 20
-605.0989981515
 10
517.1842247952
 20
-603.6573935672
 10
512.3024604361
 20
-601.9013671771
 10
507.5809994673
 20
-599.8336608079
 10
503.0272138896
 20
-597.4575029377
 10
498.6482138985
 20
-594.776603655
 10
494.4508367827
 20
-591.7951488657
 10
490.4416362484
 20
-588.5177937576
 10
486.6268721862
 20
-584.9496555316
 10
483.0125008974
 20
-581.096305412
 10
479.6041657938
 20
-576.9637599476
 10
476.4071885859
 20
-572.5584716176
 10
473.4265609742
 20
-567.8873187568
 10
470.6669368549
 20
-562.9575948158
 10
468.1326250535
 20
-557.7769969733
 10
465.8275825969
 20
-552.3536141181
 10
463.7554085354
 20
-546.6959142185
 10
461.9193383228
 20
-540.8127311014
 10
460.3222387648
 20
-534.7132506588
 10
458.9666035427
 20
-528.4069965054
 10
457.85454932
 20
-521.9038151085
 10
456.9878124374
 20
-515.2138604138
 10
456.3677462016
 20
-508.3475779914
 10
455.9953187724
 20
-501.3156887263
 10
455.8711116512
 20
-494.1291720788
  0
LWPOLYLINE
  5
E3
330
1F
100
AcDbEntity
  8
0
  6
Continuous
 62
     7
370
    25
100
AcDbPolyline
 90
      145
 70
   128
 43
0.0
 10
484.7917790017
 20
-477.4336261921
 10
484.9156799538
 20
-470.8050081589
 10
485.2871469574
 20
-464.0459550826
 10
485.9054729041
 20
-457.1693332048
 10
486.7694807752
 20
-450.1882325663
 10
487.8775258827
 20
-443.1159420888
 10
489.2274989998
 20
-435.9659242792
 10
490.8168303758
 20
-428.7517896028
 10
492.6424946282
 20
-421.487270575
 10
494.7010165013
 20
-414.1861956206
 10
496.9884774817
 20
-406.8624627508
 10
499.5005232574
 20
-399.5300131073
 10
502.2323720066
 20
-392.2028044248
 10
505.1788234998
 20
-384.8947844615
 10
508.3342689991
 20
-377.6198644487
 10
511.6927019348
 20
-370.3918926102
 10
515.2477293389
 20
-363.2246278011
 10
518.9925840146
 20
-356.1317133174
 10
522.9201374181
 20
-349.1266509249
 10
527.0229132285
 20
-342.2227751581
 10
531.2931015787
 20
-335.4332279369
 10
535.7225739225
 20
-328.7709335502
 10
540.3028985076
 20
-322.2485740542
 10
545.0253564258
 20
-315.8785651307
 10
549.8809582099
 20
-309.6730324539
 10
554.8604609461
 20
-303.643788608
 10
559.9543858679
 20
-297.8023106011
 10
565.1530363997
 20
-292.1597180188
 10
570.4465166147
 20
-286.7267518567
 10
575.8247500724
 20
-281.5137540747
 10
581.2774989998
 20
-276.5306479104
 10
586.7943837794
 20
-271.7869189896
 10
592.3649027075
 20
-267.2915972698
 10
597.9784519846
 20
-263.0532398515
 10
603.6243459007
 20
-259.0799146889
 10
609.2918371758
 20
-255.3791852324
 10
614.9701374181
 20
-251.9580960306
 10
620.6484376605
 20
-248.8231593215
 10
626.3159289356
 20
-245.9803426351
 10
631.9618228517
 20
-243.4350574347
 10
637.5753721288
 20
-241.1921488152
 10
643.1458910569
 20
-239.2558862808
 10
648.6627758365
 20
-237.6299556171
 10
654.1155247639
 20
-236.3174518757
 10
659.4937582216
 20
-235.3208734819
 10
664.7872384366
 20
-234.6421174795
 10
669.9858889684
 20
-234.2824759189
 10
675.0798138902
 20
-234.2426333985
 10
680.0593166264
 20
-234.5226657607
 10
684.9149184105
 20
-235.1220399479
 10
689.6373763287
 20
-236.0396150174
 10
694.2177009138
 20
-237.2736443128
 10
698.6471732576
 20
-238.8217787892
 10
702.9173616078
 20
-240.6810714847
 10
707.0201374181
 20
-242.84798313
 10
710.9476908217
 20
-245.3183888855
 10
714.6925454974
 20
-248.0875861936
 10
718.2475729015
 20
-251.1503037297
 10
721.6060058372
 20
-254.500711437
 10
724.7614513365
 20
-258.1324316239
 10
727.7079028297
 20
-262.0385511046
 10
730.4397515789
 20
-266.2116343588
 10
732.9517973546
 20
-270.6437376852
 10
735.239258335
 20
-275.3264243233
 10
737.2977802081
 20
-280.2507805129
 10
739.1234444605
 20
-285.4074324622
 10
740.7127758365
 20
-290.7865641909
 10
742.0627489536
 20
-296.3779362163
 10
743.1707940611
 20
-302.1709050438
 10
744.0348019322
 20
-308.154443428
 10
744.6531278789
 20
-314.3171613636
 10
745.0245948825
 20
-320.6473277666
 10
745.1484958346
 20
-327.1328928055
 10
745.0245948825
 20
-333.7615108387
 10
744.6531278789
 20
-340.520563915
 10
744.0348019322
 20
-347.3971857927
 10
743.1707940611
 20
-354.3782864313
 10
742.0627489536
 20
-361.4505769088
 10
740.7127758365
 20
-368.6005947184
 10
739.1234444605
 20
-375.8147293948
 10
737.2977802081
 20
-383.0792484226
 10
735.239258335
 20
-390.380323377
 10
732.9517973546
 20
-397.7040562468
 10
730.4397515789
 20
-405.0365058903
 10
727.7079028297
 20
-412.3637145728
 10
724.7614513365
 20
-419.6717345361
 10
721.6060058372
 20
-426.9466545489
 10
718.2475729015
 20
-434.1746263874
 10
714.6925454974
 20
-441.3418911965
 10
710.9476908217
 20
-448.4348056802
 10
707.0201374181
 20
-455.4398680726
 10
702.9173616078
 20
-462.3437438394
 10
698.6471732576
 20
-469.1332910607
 10
694.2177009138
 20
-475.7955854474
 10
689.6373763287
 20
-482.3179449434
 10
684.9149184105
 20
-488.6879538668
 10
680.0593166264
 20
-494.8934865436
 10
675.0798138902
 20
-500.9227303896
 10
669.9858889684
 20
-506.7642083965
 10
664.7872384366
 20
-512.4068009788
 10
659.4937582216
 20
-517.8397671408
 10
654.1155247639
 20
-523.0527649228
 10
648.6627758365
 20
-528.0358710872
 10
643.1458910569
 20
-532.779600008
 10
637.5753721288
 20
-537.2749217278
 10
631.9618228517
 20
-541.5132791461
 10
626.3159289356
 20
-545.4866043086
 10
620.6484376605
 20
-549.1873337652
 10
614.9701374181
 20
-552.608422967
 10
609.2918371758
 20
-555.7433596761
 10
603.6243459007
 20
-558.5861763625
 10
597.9784519846
 20
-561.1314615629
 10
592.3649027075
 20
-563.3743701824
 10
586.7943837794
 20
-565.3106327168
 10
581.2774989998
 20
-566.9365633805
 10
575.8247500724
 20
-568.2490671219
 10
570.4465166147
 20
-569.2456455157
 10
565.1530363997
 20
-569.9244015181
 10
559.9543858679
 20
-570.2840430786
 10
554.8604609461
 20
-570.3238855991
 10
549.8809582099
 20
-570.0438532369
 10
545.0253564258
 20
-569.4444790497
 10
540.3028985076
 20
-568.5269039802
 10
535.7225739225
 20
-567.2928746848
 10
531.2931015787
 20
-565.7447402084
 10
527.0229132285
 20
-563.8854475128
 10
522.9201374181
 20
-561.7185358676
 10
518.9925840146
 20
-559.248130112
 10
515.2477293389
 20
-556.478932804
 10
511.6927019348
 20
-553.4162152679
 10
508.3342689991
 20
-550.0658075606
 10
505.1788234998
 20
-546.4340873737
 10
502.2323720066
 20
-542.527967893
 10
499.5005232574
 20
-538.3548846388
 10
496.9884774817
 20
-533.9227813124
 10
494.7010165013
 20
-529.2400946743
 10
492.6424946282
 20
-524.3157384847
 10
490.8168303758
 20
-519.1590865354
 10
489.2274989998
 20
-513.7799548066
 10
487.8775258827
 20
-508.1885827813
 10
486.7694807752
 20
-502.3956139538
 10
485.9054729041
 20
-496.4120755696
 10
485.2871469574
 20
-490.249357634
 10
484.9156799538
 20
-483.919191231
 10
484.7917790017
 20
-477.4336261921
  0
ARC
  5
E4
330
1F
100
AcDbEntity
  8
0
  6
Continuous
 62
     7
370
    25
100
AcDbCircle
 10
832.6696055792
 20
-355.8112973118
 30
0.0
 40
75.9121321383577
100
AcDbArc
 50
48.4133830926
 51
59.97288109
  0
ARC
  5
E5
330
1F
100
AcDbEntity
  8
0
  6
Continuous
 62
     7
370
    25
100
AcDbCircle
 10
683.6701599184
 20
-613.8868324613
 30
0.0
 40
76.08820454214471
100
AcDbArc
 50
240.0426068149
 51
252.4392447603
  0
LWPOLYLINE
  5
E6
330
1F
100
AcDbEntity
  8
0
  6
Continuous
 62
     7
370
    25
100
AcDbPolyline
 90
       12
 70
   128
 43
0.0
 10
894.4668613659
 20
-311.3655092893
 10
895.6733174622
 20
-312.9887264648
 10
898.759605976
 20
-317.5232535205
 10
901.6273959207
 20
-322.3197849695
 10
904.2722095827
 20
-327.3708315972
 10
906.6899173994
 20
-332.668506794
 10
908.876744407
 20
-338.2045388688
 10
910.8292761349
 20
-343.9702839649
 10
912.5444639364
 20
-349.9567395556
 10
914.0196297495
 20
-356.1545585012
 10
915.2524702777
 20
-362.5540636432
 10
915.4463014351
 20
-363.7132216074
  0
LWPOLYLINE
  5
E7
330
1F
100
AcDbEntity
  8
0
  6
Continuous
 62
     7
370
    25
100
AcDbPolyline
 90
       10
 70
   128
 43
0.0
 10
728.4498098106
 20
-683.0131816443
 10
723.0159474923
 20
-684.8143318094
 10
716.9261777028
 20
-686.5568555782
 10
710.9018206574
 20
-687.9851815775
 10
704.9522826746
 20
-689.0970796459
 10
699.0868532517
 20
-689.8908136865
 10
693.3146905605
 20
-690.3651443778
 10
687.6448071477
 20
-690.5193311088
 10
682.0860558634
 20
-690.3531331352
 10
678.5913276541
 20
-690.0787799571
  0
ARC
  5
E8
330
1F
100
AcDbEntity
  8
0
  6
Continuous
 62
     7
370
    25
100
AcDbCircle
 10
846.7726559903
 20
-440.6405313998
 30
0.0
 40
100.6421927038366
100
AcDbArc
 50
11.4030264449
 51
25.0643833626
  0
ARC
  5
E9
330
1F
100
AcDbEntity
  8
0
  6
Continuous
 62
     7
370
    25
100
AcDbCircle
 10
766.8794617353
 20
-598.9306349856
 30
0.0
 40
85.38128672242371
100
AcDbArc
 50
261.7746061586
 51
287.4575123869
  0
LWPOLYLINE
  5
EA
330
1F
100
AcDbEntity
  8
0
  6
Continuous
 62
     7
370
    25
100
AcDbPolyline
 90
       73
 70
   128
 43
0.0
 10
1033.9317917537
 20
-439.1908805368
 10
1034.4319800777
 20
-439.4829061153
 10
1038.2748381226
 20
-441.9563938389
 10
1041.9328828607
 20
-444.7295950154
 10
1045.3988515829
 20
-447.7970037105
 10
1048.665862929
 20
-451.1525298682
 10
1051.7274305504
 20
-454.789511402
 10
1054.5774759881
 20
-458.7007274216
 10
1057.2103407405
 20
-462.8784125696
 10
1059.6207974985
 20
-467.314272439
 10
1061.8040605233
 20
-471.9995000406
 10
1063.7557951482
 20
-476.9247932885
 10
1065.4721263848
 20
-482.0803734691
 10
1066.9496466164
 20
-487.456004655
 10
1068.1854223631
 20
-493.0410140282
 10
1069.1770001068
 20
-498.8243130694
 10
1069.9224111615
 20
-504.7944195739
 10
1070.4201755827
 20
-510.9394804477
 10
1070.669305105
 20
-517.2472952412
 10
1070.669305105
 20
-523.7053403722
 10
1070.4201755827
 20
-530.3007939898
 10
1069.9224111615
 20
-537.0205614312
 10
1069.1770001068
 20
-543.8513012204
 10
1068.1854223631
 20
-550.7794515556
 10
1066.9496466164
 20
-557.7912572358
 10
1065.4721263848
 20
-564.8727969698
 10
1063.7557951482
 20
-572.0100110159
 10
1061.8040605233
 20
-579.1887290963
 10
1059.6207974985
 20
-586.3946985307
 10
1057.2103407405
 20
-593.6136125339
 10
1054.5774759881
 20
-600.8311386203
 10
1051.7274305504
 20
-608.03294706
 10
1048.665862929
 20
-615.2047393289
 10
1045.3988515829
 20
-622.3322764973
 10
1041.9328828607
 20
-629.4014075
 10
1038.2748381226
 20
-636.3980972316
 10
1034.4319800777
 20
-643.3084544124
 10
1030.411938365
 20
-650.1187591679
 10
1026.2226944052
 20
-656.8154902683
 10
1021.8725655544
 20
-663.3853519739
 10
1017.3701885907
 20
-669.8153004324
 10
1012.7245025669
 20
-676.0925695764
 10
1007.9447310626
 20
-682.204696469
 10
1003.0403638715
 20
-688.1395460481
 10
998.0211381609
 20
-693.8853352191
 10
992.8970191388
 20
-699.4306562495
 10
987.6781802691
 20
-704.7644994178
 10
982.3749830734
 20
-709.8762748719
 10
976.9979565587
 20
-714.755833655
 10
971.5577763137
 20
-719.3934878547
 10
966.0652433124
 20
-723.7800298379
 10
960.5312624709
 20
-727.9067505316
 10
954.9668209958
 20
-731.7654567137
 10
949.3829665705
 20
-735.3484872804
 10
943.7907854213
 20
-738.6487284561
 10
938.2013803061
 20
-741.6596279174
 10
932.6258484714
 20
-744.3752078021
 10
927.0752596195
 20
-746.7900765779
 10
921.5606339309
 20
-748.8994397462
 10
916.0929201844
 20
-750.6991093617
 10
910.6829740195
 20
-752.185512347
 10
905.3415363835
 20
-753.3556975865
 10
900.0792122065
 20
-754.2073417858
 10
894.906449346
 20
-754.7387540842
 10
889.8335178439
 20
-754.9488794117
 10
884.870489536
 20
-754.8373005839
 10
880.0272180557
 20
-754.4042391302
 10
875.3133192703
 20
-753.6505548542
 10
870.7381521893
 20
-752.5777441261
 10
866.3108003835
 20
-751.1879369124
 10
862.0400539502
 20
-749.4838925466
 10
857.934392061
 20
-747.4689942511
 10
856.4462167108
 20
-746.638226682
  0
LWPOLYLINE
  5
EB
330
1F
100
AcDbEntity
  8
0
  6
Continuous
 62
     1
370
    25
100
AcDbPolyline
 90
       75
 70
   128
 43
0.0
 10
883.0563990209
 20
-299.032579006
 10
884.626493778
 20
-300.4619535944
 10
888.3417866478
 20
-304.1734222151
 10
891.8538253649
 20
-308.1671495496
 10
895.1571262976
 20
-312.4368998667
 10
898.2465317337
 20
-316.9760064581
 10
901.1172179334
 20
-321.7773820478
 10
903.7647026608
 20
-326.8335298576
 10
906.184852183
 20
-332.1365553131
 10
908.3738877236
 20
-337.6781783694
 10
910.3283913635
 20
-343.44974644
 10
912.0453113774
 20
-349.4422479064
 10
913.5219669984
 20
-355.6463261891
 10
914.7560526041
 20
-362.0522943561
 10
915.7456413163
 20
-368.6501502487
 10
916.4891880096
 20
-375.4295920981
 10
916.9855317242
 20
-382.3800346106
 10
917.2338974784
 20
-389.4906254953
 10
917.2338974784
 20
-396.7502624086
 10
916.9855317242
 20
-404.1476102893
 10
916.4891880096
 20
-411.6711190566
 10
915.7456413163
 20
-419.3090416449
 10
914.7560526041
 20
-427.0494523446
 10
913.5219669984
 20
-434.8802654233
 10
912.0453113774
 20
-442.7892539959
 10
910.3283913635
 20
-450.7640691157
 10
908.3738877236
 20
-458.7922590554
 10
906.184852183
 20
-466.8612887495
 10
903.7647026608
 20
-474.9585593661
 10
901.1172179334
 20
-483.0714279781
 10
898.2465317337
 20
-491.1872273044
 10
895.1571262976
 20
-499.2932854876
 10
891.8538253649
 20
-507.3769458803
 10
888.3417866478
 20
-515.4255868062
 10
884.626493778
 20
-523.426641268
 10
880.7137477441
 20
-531.367616569
 10
876.6096578347
 20
-539.2361138188
 10
872.320632099
 20
-547.0198472931
 10
867.8533673416
 20
-554.7066636159
 10
863.2148386659
 20
-562.2845607362
 10
858.412288584
 20
-569.7417066671
 10
853.4532157077
 20
-577.0664579604
 10
848.3453630406
 20
-584.2473778865
 10
843.0967058884
 20
-591.2732542914
 10
837.715439406
 20
-598.1331171031
 10
832.2099658024
 20
-604.8162554601
 10
826.588881221
 20
-611.3122344351
 10
820.8609623182
 20
-617.6109113283
 10
815.0351525592
 20
-623.7024515032
 10
809.1205482547
 20
-629.577343743
 10
803.1263843569
 20
-635.2264151009
 10
797.0620200414
 20
-640.6408452226
 10
790.9369240931
 20
-645.812180118
 10
784.7606601222
 20
-650.7323453617
 10
778.5428716318
 20
-655.3936586997
 10
772.2932669605
 20
-659.7888420446
 10
766.0216041242
 20
-663.9110328392
 10
759.7376755797
 20
-667.7537947721
 10
753.4512929358
 20
-671.3111278265
 10
747.1722716324
 20
-674.5774776493
 10
740.9104156162
 20
-677.5477442229
 10
734.6755020319
 20
-680.2172898286
 10
728.477265957
 20
-682.5819462879
 10
722.3253852013
 20
-684.6380214704
 10
716.2294651963
 20
-686.3823050589
 10
710.1990239975
 20
-687.8120735614
 10
704.243477423
 20
-688.9250945643
 10
698.3721243518
 20
-689.7196302173
 10
692.5941322048
 20
-690.1944399475
 10
686.9185226307
 20
-690.3487823956
 10
681.3541574202
 20
-690.1824165744
 10
675.9097246691
 20
-689.6956022442
 10
670.5937252127
 20
-688.8890995079
 10
665.4144593533
 20
-687.7641676239
 10
660.7130603087
 20
-686.4291404475
  0
LWPOLYLINE
  5
EC
330
1F
100
AcDbEntity
  8
0
  6
Continuous
 62
     1
370
    25
100
AcDbPolyline
 90
       33
 70
   128
 43
0.0
 10
628.1322034018
 20
-544.2397769257
 10
628.5809307938
 20
-539.5341218608
 10
629.4449386649
 20
-532.5530212222
 10
630.5529837725
 20
-525.4807307447
 10
631.9029568895
 20
-518.3307129351
 10
633.4922882655
 20
-511.1165782587
 10
635.3179525179
 20
-503.8520592309
 10
637.376474391
 20
-496.5509842765
 10
639.6639353714
 20
-489.2272514067
 10
642.1759811471
 20
-481.8948017632
 10
644.9078298963
 20
-474.5675930807
 10
647.8542813895
 20
-467.2595731174
 10
651.0097268888
 20
-459.9846531046
 10
654.3681598245
 20
-452.7566812661
 10
657.9231872286
 20
-445.589416457
 10
661.6680419043
 20
-438.4965019733
 10
665.5955953079
 20
-431.4914395809
 10
669.6983711182
 20
-424.587563814
 10
673.9685594684
 20
-417.7980165928
 10
678.3980318123
 20
-411.1357222061
 10
682.9783563973
 20
-404.6133627101
 10
687.7008143155
 20
-398.2433537866
 10
692.5564160996
 20
-392.0378211099
 10
697.5359188359
 20
-386.0085772639
 10
702.6298437576
 20
-380.167099257
 10
707.8284942894
 20
-374.5245066747
 10
713.1219745044
 20
-369.0915405126
 10
718.5002079621
 20
-363.8785427306
 10
723.9529568895
 20
-358.8954365663
 10
729.4698416691
 20
-354.1517076455
 10
735.0403605972
 20
-349.6563859257
 10
740.6539098743
 20
-345.4180285074
 10
744.4835293242
 20
-342.6915307278
  0
LWPOLYLINE
  5
ED
330
1F
100
AcDbEntity
  8
0
  6
Continuous
 62
     1
370
    25
100
AcDbPolyline
 90
       51
 70
   128
 43
0.0
 10
915.4463014351
 20
-363.7132216074
 10
916.2410605871
 20
-369.1452629138
 10
916.9838571111
 20
-375.9178649379
 10
917.4797000611
 20
-382.8612951014
 10
917.7278152374
 20
-389.9647120623
 10
917.7278152374
 20
-397.2170246782
 10
917.4797000611
 20
-404.6069093239
 10
916.9838571111
 20
-412.1228275718
 10
916.2410605871
 20
-419.7530442077
 10
915.2524702777
 20
-427.4856455541
 10
914.0196297495
 20
-435.3085580718
 10
912.5444639364
 20
-443.2095672118
 10
910.8292761349
 20
-451.1763364859
 10
908.876744407
 20
-459.1964267299
 10
906.6899173994
 20
-467.2573155247
 10
904.2722095827
 20
-475.3464167495
 10
901.6273959207
 20
-483.4511002329
 10
898.759605976
 20
-491.5587114737
 10
895.6733174622
 20
-499.6565913994
 10
892.3733492523
 20
-507.7320961317
 10
888.8648538552
 20
-515.7726167287
 10
885.1533093697
 20
-523.7655988719
 10
881.2445109321
 20
-531.6985624686
 10
877.1445616672
 20
-539.5591211376
 10
872.8598631589
 20
-547.3350015499
 10
868.3971054554
 20
-555.0140625912
 10
863.7632566231
 20
-562.5843143192
 10
858.9655518668
 20
-570.0339366845
 10
854.0114822331
 20
-577.3512979861
 10
848.9087829135
 20
-584.524973033
 10
843.6654211674
 20
-591.5437609831
 10
838.2895838816
 20
-598.3967028322
 10
832.789664788
 20
-605.0730985251
 10
827.1742513573
 20
-611.5625236626
 10
821.4521113911
 20
-617.8548457775
 10
815.6321793315
 20
-623.9402401558
 10
809.7235423117
 20
-629.8092051767
 10
803.7354259669
 20
-635.4525771478
 10
797.6771800301
 20
-640.8615446138
 10
791.558263733
 20
-646.0276621141
 10
785.3882310371
 20
-650.9428633694
 10
779.1767157161
 20
-655.5994738765
 10
772.9334163137
 20
-659.9902228908
 10
766.6680810009
 20
-664.1082547789
 10
760.390492355
 20
-667.947139723
 10
754.1104520855
 20
-671.5008837597
 10
747.8377657297
 20
-674.7639381398
 10
741.5822273429
 20
-677.7312079911
 10
735.3536042056
 20
-680.398060274
 10
729.1616215735
 20
-682.7603310152
 10
728.4498098106
 20
-683.0131816443
  0
LWPOLYLINE
  5
EE
330
1F
100
AcDbEntity
  8
0
  6
Continuous
 62
     1
370
    25
100
AcDbPolyline
 90
       48
 70
   128
 43
0.0
 10
945.4282455518
 20
-420.7426521031
 10
945.7057337979
 20
-422.1164598272
 10
946.6985796663
 20
-427.9071551065
 10
947.4449440243
 20
-433.8848967563
 10
947.9433450344
 20
-440.0378165238
 10
948.1927931675
 20
-446.3536983565
 10
948.1927931675
 20
-452.8200026556
 10
947.9433450344
 20
-459.4238911724
 10
947.4449440243
 20
-466.1522524975
 10
946.6985796663
 20
-472.9917280925
 10
945.7057337979
 20
-479.9287388115
 10
944.4683776224
 20
-486.9495118619
 10
942.9889677962
 20
-494.0401081487
 10
941.2704415504
 20
-501.1864499493
 10
939.3162108599
 20
-508.3743488635
 10
937.1301556688
 20
-515.5895339835
 10
934.7166161873
 20
-522.8176802269
 10
932.0803842746
 20
-530.0444367785
 10
929.2266939252
 20
-537.2554555822
 10
926.1612108772
 20
-544.4364198276
 10
922.8900213634
 20
-551.5730723748
 10
919.4196200277
 20
-558.6512440608
 10
915.7568970308
 20
-565.6568818309
 10
911.9091243701
 20
-572.5760766399
 10
907.8839414421
 20
-579.3950910669
 10
903.689339875
 20
-586.1003865899
 10
899.3336476618
 20
-592.6786504654
 10
894.8255126262
 20
-599.1168221593
 10
890.1738852532
 20
-605.4021192776
 10
885.3880009182
 20
-611.5220629449
 10
880.4773615515
 20
-617.4645025793
 10
875.4517167732
 20
-623.2176400171
 10
870.3210445358
 20
-628.7700529365
 10
865.0955313139
 20
-634.1107175354
 10
859.7855518805
 20
-639.2290304187
 10
854.4016487082
 20
-644.11482965
 10
848.9545110384
 20
-648.7584149271
 10
843.4549536586
 20
-653.1505668413
 10
837.9138954311
 20
-657.2825651816
 10
832.3423376141
 20
-661.1462062476
 10
826.7513420198
 20
-664.7338191377
 10
821.1520090524
 20
-668.0382809787
 10
815.5554556693
 20
-671.0530310673
 10
809.9727933093
 20
-673.7720838963
 10
804.4151058315
 20
-676.190041038
 10
798.8934275102
 20
-678.3021018624
 10
793.4187211264
 20
-680.1040730682
 10
792.4937187655
 20
-680.3792320218
  0
LWPOLYLINE
  5
EF
330
1F
100
AcDbEntity
  8
0
  6
Continuous
 62
     1
370
    25
100
AcDbPolyline
 90
       33
 70
   128
 43
0.0
 10
630.3771849839
 20
-542.6575693515
 10
630.6303540981
 20
-540.164393833
 10
631.5037387643
 20
-533.153752052
 10
632.6237690523
 20
-526.0513042594
 10
633.9882830026
 20
-518.8707600888
 10
635.5946467364
 20
-511.6259799204
 10
637.4397595401
 20
-504.3309481274
 10
639.5200598499
 20
-496.999746082
 10
641.831532127
 20
-489.6465249748
 10
644.3697146086
 20
-482.285478499
 10
647.1297079203
 20
-474.9308154531
 10
650.1061845331
 20
-467.5967323135
 10
653.2933990471
 20
-460.2973858321
 10
656.6851992815
 20
-453.0468657098
 10
660.2750381502
 20
-445.8591673992
 10
664.0559862992
 20
-438.7481650902
 10
668.0207454823
 20
-431.7275849287
 10
672.1616626485
 20
-424.8109785214
 10
676.4707447146
 20
-418.0116967779
 10
680.939673994
 20
-411.3428641396
 10
685.5598242518
 20
-404.8173532461
 10
690.3222773564
 20
-398.4477600874
 10
695.2178404928
 20
-392.2463796906
 10
700.2370639086
 20
-386.2251823866
 10
705.3702591531
 20
-380.3957907047
 10
710.6075177799
 20
-374.7694569379
 10
715.9387304721
 20
-369.3570414227
 10
721.3536065561
 20
-364.1689915758
 10
726.8416938655
 20
-359.2153217279
 10
732.3923989166
 20
-354.5055937936
 10
737.9950073568
 20
-350.0488988135
 10
743.6387046457
 20
-345.853839407
 10
744.2360448401
 20
-345.4268688316
  0
LWPOLYLINE
  5
F0
330
1F
100
AcDbEntity
  8
0
  6
Continuous
 62
     1
370
    25
100
AcDbPolyline
 90
       58
 70
   128
 43
0.0
 10
935.6080010268
 20
-393.1161393721
 10
937.6382118297
 20
-396.895224644
 10
939.8214748545
 20
-401.5804522455
 10
941.7732094794
 20
-406.5057454935
 10
943.489540716
 20
-411.661325674
 10
944.9670609476
 20
-417.03695686
 10
946.2028366943
 20
-422.6219662331
 10
947.194414438
 20
-428.4052652744
 10
947.9398254927
 20
-434.3753717788
 10
948.4375899139
 20
-440.5204326526
 10
948.6867194362
 20
-446.8282474462
 10
948.6867194362
 20
-453.2862925772
 10
948.4375899139
 20
-459.8817461948
 10
947.9398254927
 20
-466.6015136362
 10
947.194414438
 20
-473.4322534254
 10
946.2028366943
 20
-480.3604037606
 10
944.9670609476
 20
-487.3722094408
 10
943.489540716
 20
-494.4537491747
 10
941.7732094794
 20
-501.5909632208
 10
939.8214748545
 20
-508.7696813012
 10
937.6382118297
 20
-515.9756507357
 10
935.2277550717
 20
-523.1945647389
 10
932.5948903193
 20
-530.4120908253
 10
929.7448448816
 20
-537.613899265
 10
926.6832772602
 20
-544.7856915338
 10
923.4162659141
 20
-551.9132287023
 10
919.9502971919
 20
-558.9823597049
 10
916.2922524538
 20
-565.9790494366
 10
912.4493944089
 20
-572.8894066174
 10
908.4293526962
 20
-579.6997113729
 10
904.2401087364
 20
-586.3964424732
 10
899.8899798856
 20
-592.9663041789
 10
895.3876029219
 20
-599.3962526374
 10
890.7419168981
 20
-605.6735217814
 10
885.9621453938
 20
-611.785648674
 10
881.0577782027
 20
-617.7204982531
 10
876.0385524921
 20
-623.4662874241
 10
870.91443347
 20
-629.0116084545
 10
865.6955946003
 20
-634.3454516227
 10
860.3923974046
 20
-639.4572270769
 10
855.0153708899
 20
-644.33678586
 10
849.5751906449
 20
-648.9744400597
 10
844.0826576436
 20
-653.3609820429
 10
838.5486768021
 20
-657.4877027365
 10
832.984235327
 20
-661.3464089187
 10
827.4003809017
 20
-664.9294394853
 10
821.8081997525
 20
-668.229680661
 10
816.2187946373
 20
-671.2405801223
 10
810.6432628026
 20
-673.9561600071
 10
805.0926739507
 20
-676.3710287829
 10
799.5780482621
 20
-678.4803919511
 10
794.1103345156
 20
-680.2800615667
 10
788.7003883506
 20
-681.7664645519
 10
783.3589507147
 20
-682.9366497915
 10
778.0966265377
 20
-683.7882939908
 10
772.9238636772
 20
-684.3197062892
 10
767.8509321751
 20
-684.5298316166
 10
767.3765967963
 20
-684.5330545575
  0
ENDSEC
  0
SECTION
  2
OBJECTS
  0
DICTIONARY
  5
C
330
0
100
AcDbDictionary
281
     1
  3
ACAD_GROUP
350
D
  3
ACAD_LAYOUT
350
1A
  3
ACAD_MLINESTYLE
350
17
  3
ACAD_PLOTSETTINGS
350
19
  3
ACAD_PLOTSTYLENAME
350
E
  3
ACAD_SCALELIST
350
47
  3
DWGPROPS
350
F1
  0
DICTIONARY
  5
D
102
{ACAD_REACTORS
330
C
102
}
330
C
100
AcDbDictionary
281
     1
  0
DICTIONARY
  5
1A
102
{ACAD_REACTORS
330
C
102
}
330
C
100
AcDbDictionary
281
     1
  3
Layout1
350
1E
  3
Layout2
350
26
  3
Model
350
22
  0
DICTIONARY
  5
17
102
{ACAD_REACTORS
330
C
102
}
330
C
100
AcDbDictionary
281
     1
  3
Standard
350
18
  0
DICTIONARY
  5
19
102
{ACAD_REACTORS
330
C
102
}
330
C
100
AcDbDictionary
281
     1
  0
ACDBDICTIONARYWDFLT
  5
E
102
{ACAD_REACTORS
330
C
102
}
330
C
100
AcDbDictionary
281
     1
  3
Normal
350
F
100
AcDbDictionaryWithDefault
340
F
  0
DICTIONARY
  5
47
102
{ACAD_REACTORS
330
C
102
}
330
C
100
AcDbDictionary
281
     1
  3
A0
350
48
  3
A1
350
49
  3
A2
350
4A
  3
A3
350
4B
  3
A4
350
4C
  3
A5
350
4D
  3
A6
350
4E
  3
A7
350
4F
  3
A8
350
50
  3
A9
350
51
  3
B0
350
52
  3
B1
350
53
  3
B2
350
54
  3
B3
350
55
  3
B4
350
56
  3
B5
350
57
  3
B6
350
58
  3
B7
350
59
  3
B8
350
5A
  3
B9
350
5B
  3
C0
350
5C
  3
C1
350
5D
  3
C2
350
5E
  3
C3
350
5F
  3
C4
350
60
  3
C5
350
61
  3
C6
350
62
  3
C7
350
63
  3
C8
350
64
  3
C9
350
65
  3
D0
350
66
  3
D1
350
67
  3
D2
350
68
  0
XRECORD
  5
F1
102
{ACAD_REACTORS
330
C
102
}
330
C
100
AcDbXrecord
280
     1
  1
DWGPROPS COOKIE
  2

  3

  4

  6

  7

  8
b.kav
  9

300
=
301
=
302
=
303
=
304
=
305
=
306
=
307
=
308
=
309
=
 40
0.0
 41
2460731.531067627
 42
2460731.531067812
  1

 90
        0
  0
LAYOUT
  5
1E
102
{ACAD_REACTORS
330
1A
102
}
330
1A
100
AcDbPlotSettings
  1

  2
none_device
  4

  6

 40
0.0
 41
0.0
 42
0.0
 43
0.0
 44
0.0
 45
0.0
 46
0.0
 47
0.0
 48
0.0
 49
0.0
140
0.0
141
0.0
142
1.0
143
1.0
 70
   688
 72
     1
 73
     0
 74
     5
  7

 75
    16
147
1.0
148
0.0
149
0.0
100
AcDbLayout
  1
Layout1
 70
     1
 71
     1
 10
0.0
 20
0.0
 11
420.0
 21
297.0
 12
0.0
 22
0.0
 32
0.0
 14
1.0000000000E+20
 24
1.0000000000E+20
 34
1.0000000000E+20
 15
-1.0000000000E+20
 25
-1.0000000000E+20
 35
-1.0000000000E+20
146
0.0
 13
0.0
 23
0.0
 33
0.0
 16
1.0
 26
0.0
 36
0.0
 17
0.0
 27
1.0
 37
0.0
 76
     0
330
1B
  0
LAYOUT
  5
26
102
{ACAD_REACTORS
330
1A
102
}
330
1A
100
AcDbPlotSettings
  1

  2
none_device
  4

  6

 40
0.0
 41
0.0
 42
0.0
 43
0.0
 44
0.0
 45
0.0
 46
0.0
 47
0.0
 48
0.0
 49
0.0
140
0.0
141
0.0
142
1.0
143
1.0
 70
   688
 72
     1
 73
     0
 74
     5
  7

 75
    16
147
1.0
148
0.0
149
0.0
100
AcDbLayout
  1
Layout2
 70
     1
 71
     2
 10
0.0
 20
0.0
 11
0.0
 21
0.0
 12
0.0
 22
0.0
 32
0.0
 14
0.0
 24
0.0
 34
0.0
 15
0.0
 25
0.0
 35
0.0
146
0.0
 13
0.0
 23
0.0
 33
0.0
 16
1.0
 26
0.0
 36
0.0
 17
0.0
 27
1.0
 37
0.0
 76
     0
330
23
  0
LAYOUT
  5
22
102
{ACAD_REACTORS
330
1A
102
}
330
1A
100
AcDbPlotSettings
  1

  2
none_device
  4
Letter_(8.50_x_11.00_Inches)
  6

 40
6.35
 41
6.35
 42
6.35000508
 43
6.35000508
 44
215.9
 45
279.4
 46
0.0
 47
0.0
 48
0.0
 49
0.0
140
0.0
141
0.0
142
1.0
143
1.0
 70
  1712
 72
     1
 73
     0
 74
     0
  7

 75
     0
147
1.0
148
0.0
149
0.0
100
AcDbLayout
  1
Model
 70
     1
 71
     0
 10
0.0
 20
0.0
 11
279.4
 21
215.9
 12
0.0
 22
0.0
 32
0.0
 14
0.0
 24
0.0
 34
0.0
 15
279.4
 25
215.9
 35
0.0
146
0.0
 13
0.0
 23
0.0
 33
0.0
 16
1.0
 26
0.0
 36
0.0
 17
0.0
 27
1.0
 37
0.0
 76
     0
330
1F
331
29
  0
MLINESTYLE
  5
18
102
{ACAD_REACTORS
330
17
102
}
330
17
100
AcDbMlineStyle
  2
Standard
 70
     0
  3

 62
   256
 51
90.0
 52
90.0
 71
     2
 49
0.5
 62
   256
  6
BYLAYER
 49
-0.5
 62
   256
  6
BYLAYER
  0
ACDBPLACEHOLDER
  5
F
102
{ACAD_REACTORS
330
E
102
}
330
E
  0
SCALE
  5
48
102
{ACAD_REACTORS
330
47
102
}
330
47
100
AcDbScale
 70
     0
300
1:1
140
1.0
141
1.0
290
     1
  0
SCALE
  5
49
102
{ACAD_REACTORS
330
47
102
}
330
47
100
AcDbScale
 70
     0
300
1:2
140
1.0
141
2.0
290
     0
  0
SCALE
  5
4A
102
{ACAD_REACTORS
330
47
102
}
330
47
100
AcDbScale
 70
     0
300
1:4
140
1.0
141
4.0
290
     0
  0
SCALE
  5
4B
102
{ACAD_REACTORS
330
47
102
}
330
47
100
AcDbScale
 70
     0
300
1:5
140
1.0
141
5.0
290
     0
  0
SCALE
  5
4C
102
{ACAD_REACTORS
330
47
102
}
330
47
100
AcDbScale
 70
     0
300
1:8
140
1.0
141
8.0
290
     0
  0
SCALE
  5
4D
102
{ACAD_REACTORS
330
47
102
}
330
47
100
AcDbScale
 70
     0
300
1:10
140
1.0
141
10.0
290
     0
  0
SCALE
  5
4E
102
{ACAD_REACTORS
330
47
102
}
330
47
100
AcDbScale
 70
     0
300
1:16
140
1.0
141
16.0
290
     0
  0
SCALE
  5
4F
102
{ACAD_REACTORS
330
47
102
}
330
47
100
AcDbScale
 70
     0
300
1:20
140
1.0
141
20.0
290
     0
  0
SCALE
  5
50
102
{ACAD_REACTORS
330
47
102
}
330
47
100
AcDbScale
 70
     0
300
1:30
140
1.0
141
30.0
290
     0
  0
SCALE
  5
51
102
{ACAD_REACTORS
330
47
102
}
330
47
100
AcDbScale
 70
     0
300
1:40
140
1.0
141
40.0
290
     0
  0
SCALE
  5
52
102
{ACAD_REACTORS
330
47
102
}
330
47
100
AcDbScale
 70
     0
300
1:50
140
1.0
141
50.0
290
     0
  0
SCALE
  5
53
102
{ACAD_REACTORS
330
47
102
}
330
47
100
AcDbScale
 70
     0
300
1:100
140
1.0
141
100.0
290
     0
  0
SCALE
  5
54
102
{ACAD_REACTORS
330
47
102
}
330
47
100
AcDbScale
 70
     0
300
2:1
140
2.0
141
1.0
290
     0
  0
SCALE
  5
55
102
{ACAD_REACTORS
330
47
102
}
330
47
100
AcDbScale
 70
     0
300
4:1
140
4.0
141
1.0
290
     0
  0
SCALE
  5
56
102
{ACAD_REACTORS
330
47
102
}
330
47
100
AcDbScale
 70
     0
300
8:1
140
8.0
141
1.0
290
     0
  0
SCALE
  5
57
102
{ACAD_REACTORS
330
47
102
}
330
47
100
AcDbScale
 70
     0
300
10:1
140
10.0
141
1.0
290
     0
  0
SCALE
  5
58
102
{ACAD_REACTORS
330
47
102
}
330
47
100
AcDbScale
 70
     0
300
100:1
140
100.0
141
1.0
290
     0
  0
SCALE
  5
59
102
{ACAD_REACTORS
330
47
102
}
330
47
100
AcDbScale
 70
     0
300
1/128" = 1'-0"
140
0.0078125
141
12.0
290
     0
  0
SCALE
  5
5A
102
{ACAD_REACTORS
330
47
102
}
330
47
100
AcDbScale
 70
     0
300
1/64" = 1'-0"
140
0.015625
141
12.0
290
     0
  0
SCALE
  5
5B
102
{ACAD_REACTORS
330
47
102
}
330
47
100
AcDbScale
 70
     0
300
1/32" = 1'-0"
140
0.03125
141
12.0
290
     0
  0
SCALE
  5
5C
102
{ACAD_REACTORS
330
47
102
}
330
47
100
AcDbScale
 70
     0
300
1/16" = 1'-0"
140
0.0625
141
12.0
290
     0
  0
SCALE
  5
5D
102
{ACAD_REACTORS
330
47
102
}
330
47
100
AcDbScale
 70
     0
300
3/32" = 1'-0"
140
0.09375
141
12.0
290
     0
  0
SCALE
  5
5E
102
{ACAD_REACTORS
330
47
102
}
330
47
100
AcDbScale
 70
     0
300
1/8" = 1'-0"
140
0.125
141
12.0
290
     0
  0
SCALE
  5
5F
102
{ACAD_REACTORS
330
47
102
}
330
47
100
AcDbScale
 70
     0
300
3/16" = 1'-0"
140
0.1875
141
12.0
290
     0
  0
SCALE
  5
60
102
{ACAD_REACTORS
330
47
102
}
330
47
100
AcDbScale
 70
     0
300
1/4" = 1'-0"
140
0.25
141
12.0
290
     0
  0
SCALE
  5
61
102
{ACAD_REACTORS
330
47
102
}
330
47
100
AcDbScale
 70
     0
300
3/8" = 1'-0"
140
0.375
141
12.0
290
     0
  0
SCALE
  5
62
102
{ACAD_REACTORS
330
47
102
}
330
47
100
AcDbScale
 70
     0
300
1/2" = 1'-0"
140
0.5
141
12.0
290
     0
  0
SCALE
  5
63
102
{ACAD_REACTORS
330
47
102
}
330
47
100
AcDbScale
 70
     0
300
3/4" = 1'-0"
140
0.75
141
12.0
290
     0
  0
SCALE
  5
64
102
{ACAD_REACTORS
330
47
102
}
330
47
100
AcDbScale
 70
     0
300
1" = 1'-0"
140
1.0
141
12.0
290
     0
  0
SCALE
  5
65
102
{ACAD_REACTORS
330
47
102
}
330
47
100
AcDbScale
 70
     0
300
1-1/2" = 1'-0"
140
1.5
141
12.0
290
     0
  0
SCALE
  5
66
102
{ACAD_REACTORS
330
47
102
}
330
47
100
AcDbScale
 70
     0
300
3" = 1'-0"
140
3.0
141
12.0
290
     0
  0
SCALE
  5
67
102
{ACAD_REACTORS
330
47
102
}
330
47
100
AcDbScale
 70
     0
300
6" = 1'-0"
140
6.0
141
12.0
290
     0
  0
SCALE
  5
68
102
{ACAD_REACTORS
330
47
102
}
330
47
100
AcDbScale
 70
     0
300
1'-0" = 1'-0"
140
12.0
141
12.0
290
     0
  0
ENDSEC
  0
EOF
